Войти:  Facebook Google Twitter Vk Yandex Mail.ru
PrimaNota.ru - самый крупный в мире бесплатный архив песенных текстов, аккордов, табулатур и нот


Charles Mingus - Ii Bs - бас-таба

Печатать
ViraMusic 2019 в Петербурге 4 апреля 2019! Скидка 10%!

Ii Bs

  • аккорды, текст

Авторы музыки: Charles Mingus

Artist: Charles Mingus
Song: II B.S.
Album: Mingus Mingus Mingus Mingus Mingus
Tabbed by Albert Bright


G---3---6-7------3---6-7-----3---6-7--8-7-6-3-----|
D-5---5------0-5---5-----0-5---5------------------|
A-------------------------------------------------|
E-------------------------------------------------|

G---3---6-7-------3---6-7--12-6-3-----------------|
D-5---5------0-5---5-----------------5------------|
A------------------------------------------5-1----|
E-----------------------------------------------3-|   
https://primanota.ru/charles-mingus/ii-bs-chords.htm

Привет, гитарист!

Тебе подарок от сайта PrimaNota.ru

Забрать подарок
ВАМ ПОДАРКИ ОТ ПРОЕКТА
"ГИТАРНАЯ РЕВОЛЮЦИЯ"