Войти:  Facebook Google Twitter Vk Yandex Mail.ru
PrimaNota.ru - самый крупный в мире бесплатный архив песенных текстов, аккордов, табулатур и нот


Charles Mingus - Moanin - табы

Печатать
ViraMusic 2019 в Петербурге 4 апреля 2019! Скидка 10%!

Moanin

  • аккорды, текст

Авторы музыки: Charles Mingus

Artist: Charles Mingus
Title : Moanin
Album : Blues and Roots (1959)

Intro
Standard Tuning

E||---------------|---------------|------------------------|----------|
B||---------------|---------------|------------------------|----------|
G||---------------|---------------|-------------2----------|----------| x2
D||----------2----|---------------|----------------2-------|----------|
A||--0------------|---------------|----0--3--0--------3----|----------|
E||---------------|--1------------|------------------------|--1-------|


|---------------|-------------------|-----------------|---------------------|
|---------------|-------------------|-----------------|---------------------|
|---------------|-------------------|-----------------|------------------2--|
|---------------|-------------------|-----------------|---------------------|
|--0---3--5-----|---0--0--0-3--5-0--|--L-0--0--3--5---|--0--0--0--3-5--0----|
|---------------|-------------------|-----------------|---------------------|


|-------------------------|-------------------------|-----------------------|
|-------------------------|-------------------------|-----------------------|
|--L----0--------------2--|--L----0--------------2--|--L----0--2---L--0--2--|
|----------2--0-----------|----------2--0-----------|-----------------------|
|----------------3--0-----|----------------3--0-----|-----------------------|
|-------------------------|-------------------------|-----------------------|


       
|-----------------------|
|-----------------------|
|--L----0--2--L----0----|
|-----------------------|
|-----------------------|
|-----------------------|   
Другие материалы по этой песне:
  • Аккорды, текст

https://primanota.ru/charles-mingus/moanin-chords.htm

Привет, гитарист!

Тебе подарок от сайта PrimaNota.ru

Забрать подарок
ВАМ ПОДАРКИ ОТ ПРОЕКТА
"ГИТАРНАЯ РЕВОЛЮЦИЯ"