PrimaNota.ru - самый крупный в мире бесплатный архив песенных текстов, аккордов, табулатур и нот


Zebrahead - Save Your Breath - таба, видео

Регистрация Запомнить меня
Войти через:  Facebook Google Twitter Vk Yandex Mail.ru

Zebrahead - Save Your Breath - таба, видео

Печатать
Просмотров: 115
-------------------------------------------------------------------------------
                             Save Your Breath - Zebrahead
                               (Walk The Plank - 2015)
-------------------------------------------------------------------------------
Tabbed by: Aviv Abramovich
E-mail: AvivAbramovich@gmail.com

Tuning: Half step down (Eb Ab Db Gb Bb eb)

Intro (part 1)

eb|-12~--------------14~---|
Bb|------13~---------------|
Gb|------------12~---------|X2
Db|------------------------|
Ab|------------------------|
Eb|------------------------|

eb|----------------------------------------------------------------|
Bb|----------------------------------------------------------------|
Gb|----------------------------------------------------------------|
Db|-------5------------------------------5--------------5-----5h7--|
Ab|-5-6-7----7~--------------------5-6-7----7~-- -5-6-7----7~------|
Eb|---------------0-0-0-0-0-0-0-0----------------------------------|
               PM --------------- 

eb|----------------------------------------------------------------|
Bb|----------------------------------------------------------------|
Gb|----------------------------------------------------------------|
Db|-------5------------------------------5--------------5-----5h7--|
Ab|-5-6-7----7~--------------------5-6-7----7~-- -5-6-7----7~------|
Eb|---------------3-3-3-3-3-3-3-3----------------------------------|
               PM --------------- 

eb|------------------------------------------------|
Bb|------------------------------------------------|
Gb|-9-7---7~----------------------9--8--7----------|
Db|-----9----9-7---9-7----7~------9--8--7--5-7-9---|
Ab|--------------------10----10-7-7--6--5--5-7-9---|
Eb|----------------------------------------3-5-7---|

Verse

eb|----------------|-----------------|-----------------|
Bb|----------------|-----------------|-----------------|
Gb|----------------|-----------------|-9--8--7---------|
Db|-2--------------|-----------------|-9--8--7--5-7-9--|
Ab|-2--------------|-----------------|-7--6--5--5-7-9--|
Eb|-0--0-0-0-0-0-0-|-0-0-0-0-0-0-0-0-|----------3-5-7--|
PM     -----------------------------                     

eb|----------------|-----------------|-----------------|
Bb|----------------|-----------------|-----------------|
Gb|----------------|-----------------|-9--8--7---------|
Db|-5--------------|-----------------|-9--8--7--5-7-9--|
Ab|-5--------------|-----------------|-7--6--5--5-7-9--|
Eb|-3--3-3-3-3-3-3-|-3-3-3-3-3-3-3-3-|----------3-5-7--|
PM     ----------------------------- 

eb|----------------|-----------------|-----------------|-----------------|---|
Bb|----------------|-----------------|-----------------|-----------------|---|
Gb|----------------|-----------------|-----------------|-----------------|-9-|
Db|-10-------------|-----------------|-----------------|-8-8-8-8-8-8-8-8-|-9-|
Ab|-10-------------|-----------------|-9-9-9-9-9-9-9-9-|-6-6-6-6-6-6-6-6-|-7-|
Eb|-8--8-8-8-8-8-8-|-8-8-8-8-8-8-8-8-|-7-7-7-7-7-7-7-7-|-----------------|---|
PM     ------------------------------------------------

Chorus:

eb|-------------------------------------|
Bb|-------------------------------------|
Gb|----------5-----------------4--------|X4
Db|-2--------5---------5-------4--------|
Ab|-2--------3---------5-------2--------|
Eb|-0------------------3----------------|

Solo

eb|-15-15-15-15-12-13-15-15-15-15-12-14-17-17-17-17-14-15-17-17-17-17-14-15---|
Bb|---------------------------------------------------------------------------|
Gb|---------------------------------------------------------------------------|
Db|---------------------------------------------------------------------------|
Ab|---------------------------------------------------------------------------|
Eb|---------------------------------------------------------------------------|

eb|-19-19-19-19-15-17-19-19-19-19-15-17---------------------------------------|
Bb|---------------------------------------------------------------------------|
Gb|-----------------------------------------/* Crazy shred I can't tab :( */--|
Db|---------------------------------------------------------------------------|
Ab|---------------------------------------------------------------------------|
Eb|---------------------------------------------------------------------------|

eb|---------------------------------------|--------------------------------------------|
Bb|---------------------------------------|--------------------------------------------|
Gb|-12-12-11-11-9-9-7-7-9-9-11-11-9-9-7-7-|-12-12-11-11-9-9-7-7-9-9-11-11-12-12-14b16~-|
Db|---------------------------------------|--------------------------------------------|
Ab|---------------------------------------|--------------------------------------------|
Eb|---------------------------------------|--------------------------------------------|

eb|--------------------------|-15-12----------------12-17-12----------------12-|
Bb|-15b17-14b16-13b15-12b14--|-------12----------12----------12----------12----|
Gb|--------------------------|----------12----12----------------12----12-------|
Db|--------------------------|-------------14----------------------14----------|
Ab|--------------------------|-------------------------------------------------|
Eb|--------------------------|-------------------------------------------------|

eb|-15-12----------------12-17-12----------------12-|--------------------------|
Bb|-------12----------12----------12----------12----|-15b17~-------------------|
Gb|----------12----12----------------12----12-------|--------------------------|
Db|-------------14----------------------14----------|--------------------------|
Ab|-------------------------------------------------|--------------------------|
Eb|-------------------------------------------------|--------------------------|

************************************

| /   slide up
| \   slide down
| h   hammer-on
| p   pull-off
| ~   vibrato
| +   harmonic
| x   Mute note
| b   Bend
| pb  Pre-bend
| br  Bend release
| pbr Pre-bend release
| brb Bend release bend

************************************
Добавлено: 23.04.2016
Другие материалы по этой песне:
  • Аккорды и текст

Страница создана 23.04.2016
http://primanota.ru/zebrahead/save-your-breath-chords.htm
Привет, Гость.
Предлагаем пройти революционный курс по гитаре.
Подарок от PrimaNota.Ru, забирай!