PrimaNota.ru - самый крупный в мире бесплатный архив песенных текстов, аккордов, табулатур и нот


Zebrahead - Rated U For Ugly - текст песни, таба, бас-таба, видео

Регистрация Запомнить меня
Войти через:  Facebook Google Twitter Vk Yandex Mail.ru

Zebrahead - Rated U For Ugly - текст песни, таба, бас-таба, видео

Печатать
Просмотров: 320
Zebrahead
"Rated 'U' For Ugly"
Broadcast To The World

INTRO
Guitar 1
e--------------------------------------|
b--------------------------------------|
g---------------222----------------777-|
d-4-x44-x44-x44-000--4-x44-x44-x44-777-|
a-4-x44-x44-x44-000--4-x44-x44-x44-555-|
D-4-x44-x44-x44-000--4-x44-x44-x44-000-|
Guitar 2
e----------------------------------xx-x-|
b----------------------------------xx-x-|
g----------------------------------xx-x-|
d----------------------------------xx-x-|
a----------------------------------xx-x-|
D----------------------------------xx-x-|

Intro Continued
Guitar 1
e--------------------------------------|
b--------------------------------------|
g---------------222----------------777-|
d-4-x44-x44-x44-000--4-x44-x44-x44-777-|
a-4-x44-x44-x44-000--4-x44-x44-x44-555-|
D-4-x44-x44-x44-000--4-x44-x44-x44-000-|

e--------------------------------------|
b--------------------------------------|
g---------------222--77777777-99999999-|
d-4-x44-x44-x44-000--77777777-99999999-|
a-4-x44-x44-x44-000--55555555-77777777-|
D-4-x44-x44-x44-000--------------------|
Guitar 2
e--------------------------------------------------|
b--------------------------------------------------|
g----66----66-44--------------66----66-44----------|
d-44----44-------77-66-----44----44-------77-66-77-|
a----------------------44--------------------------|
D--------------------------------------------------|

e--------------------------------------------------]----|
b--------------------------------------------------]----|
g----66----66-44--------------66-44-22----66-44----]----|
d-44----44-------77-66-----00----------22-------66-]-7/-|
a----------------------44--------------------------]----|
D--------------------------------------------------]----|

VERSE
Guitar 1(x4)
e----------------------------------------|
b----------------------------------------|
g----------------------6-77x-7-66x-6-44x-|
d-2/44x-2/44x----2/44x-------------------|
a----------------------------------------|
D----------------------------------------|
Guitar 2(x4)
e-------------------------------------------|
b-------------------------------------------|
g----------------------9-1111x-11-99x-9-77x-|
d-6/77x-6/77x----6/77x---(^-^---^)----------|
a------------------------(elevens)----------|
D-------------------------------------------|

PRE-CHORUS
(it could be only one guitar but it might be both)
e-------------------|
b-------------------|
g---------------222-|
d-4-x44-x44-x44-000-|
a-4-x44-x44-x44-000-|
D-4-x44-x44-x44-000-|

Chorus
Guitar 1(x4)
e-----------------------------------------------------------------|
b-----------------3-3-3-3-3-3-3-3---------------------------------|
g-----------------2-2-2-2-2-2-2-2-2-2-2-2-2-2-2-2-9-9-9-9-9-9-9-9-|
d-4-4-4-4-4-4-4-4-0-0-0-0-0-0-0-0-2-2-2-2-2-2-2-2-9-9-9-9-9-9-9-9-|
a-4-4-4-4-4-4-4-4-0-0-0-0-0-0-0-0-0-0-0-0-0-0-0-0-7-7-7-7-7-7-7-7-|
D-4-4-4-4-4-4-4-4-0-0-0-0-0-0-0-0---------------------------------|
Guitar 2-It's really hard to hear but i think it's like this
e--------12--|
b-7-9-10--.--|(Repeat this through the whole chorus)
g-.-.--.-----|
d------------|
a------------|
D------------|

Repeat second part of intro

Repeat verse

Repeat pre chorus

Repeat chorus

BRIDGE
Guitar 1
e--------------------------------------|
b--------------------------------------|
g---------------222----------------777-|
d-4-x44-x44-x44-000--4-x44-x44-x44-777-|
a-4-x44-x44-x44-000--4-x44-x44-x44-555-|
D-4-x44-x44-x44-000--4-x44-x44-x44-000-|
Guitar 2
e---------------------------------------|
b---------------------------------------|
g--------------------^-^-^-^-^-^-^-^-^--|
d-44444444444444444--4-4-4-4-4-4-4-4-4/-|
a-.................---------------------|
D---------------------------------------|
Bridge Continued
Guitar 1
e-----------------------------------------------------------------|
b-----------------3-3-3-3-3-3-3-3---------------------------------|
g-----------------2-2-2-2-2-2-2-2-2-2-2-2-2-2-2-2-9-9-9-9-9-9-9-9-|
d-4-4-4-4-4-4-4-4-0-0-0-0-0-0-0-0-2-2-2-2-2-2-2-2-9-9-9-9-9-9-9-9-|
a-4-4-4-4-4-4-4-4-0-0-0-0-0-0-0-0-0-0-0-0-0-0-0-0-7-7-7-7-7-7-7-7-|
D-4-4-4-4-4-4-4-4-0-0-0-0-0-0-0-0---------------------------------|
Guitar 2
e-------------------------------------------------------------|
b------------------------------------5h7r5--------------------|
g---------6------------6-------------------7-6--4-6-7-6h7r6-4-|
d-4h6h7r4---7--4h6h7r4---7--4h6h7r4---------------------------|
a-------------------------------------------------------------|
D-------------------------------------------------------------|
Bridge Continued
Guitar 1
e-----------------------------------------------------------------|
b-----------------3-3-3-3-3-3-3-3---------------------------------|
g-----------------2-2-2-2-2-2-2-2-2-2-2-2-2-2-2-2-9-9-9-9-9-9-9-9-|
d-4-4-4-4-4-4-4-4-0-0-0-0-0-0-0-0-2-2-2-2-2-2-2-2-9-9-9-9-9-9-9-9-|
a-4-4-4-4-4-4-4-4-0-0-0-0-0-0-0-0-0-0-0-0-0-0-0-0-7-7-7-7-7-7-7-7-|
D-4-4-4-4-4-4-4-4-0-0-0-0-0-0-0-0---------------------------------|
Guitar 2
e--------------------------------------------------------------|
b------------------------------------5h7r5--------5h7r5--------|
g---------6------------6-------------------7-6--4-------7-6--4-|
d-4h6h7r4---7--4h6h7r4---7--4h6h7r4----------------------------|
a--------------------------------------------------------------|
D--------------------------------------------------------------|
Bridge Continued
Guitar 1
e-----------------------------------------------------------------|
b-----------------3-3-3-3-3-3-3-3---------------------------------|
g-----------------2-2-2-2-2-2-2-2-2-2-2-2-2-2-2-2-9-9-9-9-9-9-9-9-|
d-4-4-4-4-4-4-4-4-0-0-0-0-0-0-0-0-2-2-2-2-2-2-2-2-9-9-9-9-9-9-9-9-|
a-4-4-4-4-4-4-4-4-0-0-0-0-0-0-0-0-0-0-0-0-0-0-0-0-7-7-7-7-7-7-7-7-|
D-4-4-4-4-4-4-4-4-0-0-0-0-0-0-0-0---------------------------------|
Guitar 2
e-------------------------------------------------|
b-10-10101010-12-12121212-14-14141414-10-10101010-|
g-11-11111111-13-13131313-14-14141414-11-11111111-|
d-----.-.-.-.-----.-.-.-.-----.-.-.-.-----.-.-.-.-|
a-------------------------------------------------|
D-------------------------------------------------|

e-------------------------------------|
b-------------------------------------|
g-13-13131313-14-14141414-16-16161616-|
d-----.-.-.-.-----.-.-.-.-----.-.-.-.-|
a-------------------------------------|
D-------------------------------------|

e--------------------------------------|
b-12h14r12----------12h14r12-----------|
g----------14-13--11---------14-13--11-|
d--------------------------------------|
a--------------------------------------|
D--------------------------------------|
Bridge Continued
Guitar 1
e-----------------------------------------------------------------]----|
b-----------------3-3-3-3-3-3-3-3---------------------------------]----|
g-----------------2-2-2-2-2-2-2-2-2-2-2-2-2-2-2-2-9-9-9-9-9-9-9-9-]----|
d-4-4-4-4-4-4-4-4-0-0-0-0-0-0-0-0-2-2-2-2-2-2-2-2-9-9-9-9-9-9-9-9-]-4/-|
a-4-4-4-4-4-4-4-4-0-0-0-0-0-0-0-0-0-0-0-0-0-0-0-0-7-7-7-7-7-7-7-7-]-4/-|
D-4-4-4-4-4-4-4-4-0-0-0-0-0-0-0-0---------------------------------]-4/-|
Guitar 2
e----------------------------------------------|
b-12121212-10101010-12121212-10101010-12121010-|
g-13131313-11111111-13131313-11111111-13131111-|
d----------------------------------------------|
a----------------------------------------------|
D----------------------------------------------|

e-------------------------------------------]-----|
b-14141414-12121212-15151515-14141414-12129-]-10/-|
g-14141414-13131313-16161616-14141414-13139-]-11/-|
d-------------------------------------------]-----|
a-------------------------------------------]-----|
D-------------------------------------------]-----|
Bridge Continued
Both Guitars
e-----------------------------------------|
b-----------------------------------------|
g-22222x------22222x------22222x-----2x---|
d-00000x------00000x------00000x-----0x---|
a-00000x------00000x------00000x-----0x---|
D-00000x------00000x------00000x-----0x---|

Repeat chorus

Repeat second part of intro

End With
Guitar 1
e------------|
b------------|
g------------|
d-4-4-4-4-4x-|
a-4-4-4-4-4x-|
D-4-4-4-4-4x-|
Guitar 2
e--------------|
b--------------|
g---------^----|
d-7-7-7-7-7~~/-|
a--------------|
D--------------|
Добавлено: 05.03.2012
Другие материалы по этой песне:

Страница создана 05.03.2012
http://primanota.ru/zebrahead/rated-u-for-ugly-chords.htm
Привет, Гость.
Предлагаем пройти революционный курс по гитаре.
Подарок от PrimaNota.Ru, забирай!