PrimaNota.ru - самый крупный в мире бесплатный архив песенных текстов, аккордов, табулатур и нот


Zebrahead - Worse Than This - таба, видео

Регистрация Запомнить меня
Войти через:  Facebook Google Twitter Vk Yandex Mail.ru

Zebrahead - Worse Than This - таба, видео

Печатать
Просмотров: 122
-------------------------------------------------------------------------------
                             Worse Than This - Zebrahead
                               (Walk The Plank - 2015)
-------------------------------------------------------------------------------
Tabbed by: Aviv Abramovich
E-mail: AvivAbramovich@gmail.com

Tuning: Half step down (Eb Ab Db Gb Bb eb)

Intro part 1 (clean)

Eb -x-0-x-0-x-0-x-0-x-0-x-0-x-0-x-0-x-3-x-3-x-3-x-3-x-3-x-3-x-3-x-3-|
Bb -x-2-x-2-x-2-x-2-x-0-x-0-x-0-x-0-x-3-x-3-x-3-x-3-x-4-x-4-x-4-x-4-|
Gb -x-2-x-2-x-2-x-2-x-1-x-1-x-1-x-1-x-3-x-3-x-3-x-3-x-3-x-3-x-3-x-3-|x4
Db -----------------------------------------------------------------|
Ab -----------------------------------------------------------------|
Eb -----------------------------------------------------------------|

Intro part 2 (distortion)

Lead

Eb -------------------------------------------------|
Bb -------------------------------------------------|
Gb -13-14-14-14-14-14-14-14-13-14-14-14-14-14-14-14-|
Db -------------------------------------------------| ->
Ab -11-12-12-12-12-12-12-12-11-12-12-12-12-12-12-12-|
Eb -------------------------------------------------|

Eb -------------------------------------------------|
Bb -------------------------------------------------|
Gb -18-18-18-16-16-16-18-18-19-19-19-19-18-18-16-16-| x2
Db -------------------------------------------------|
Ab -16-16-16-14-14-14-16-16-17-17-17-17-16-16-14-14-|
Eb -------------------------------------------------|

Rhythm

Eb -------------|
Bb ----------3~-|
Gb -2~-------2~-|
Db -2~-2~-4~-0~-|x2
Ab -0~-2~-4~----|
Eb ----0~-2~----|

Verse:

part 1 is just like the first part of the intro

second part (distortion)

Eb -------|
Bb ----3~-|
Gb -4~-2~-|
Db -4~-0~-|x2
Ab -2~----|
Eb -------|

Chorus

Eb ----------------------|   ----------------------|----------------------|
Bb -----------------3----|   -----------------3----|-----------------3----|
Gb -2---------------2-x8-|   -2---------------2-x8-|-2---------------2-x8-|
Db -2-x8-2----4-----0----|X2 -2-x8-2----5-----0----|-2-x8-2----4-----0----|x2
Ab -0----2-x8-4-x8-------|   -0----2-x8-5-x8-------|-0----2-x8-4-x8-------|
Eb ------0----2----------|   ------0----3----------|------0----2----------|


C part

Eb --------------|--------------|    ----------------
Bb --------------|--------------|    -3--------------
Gb --------6-----|--------4-----|    -2-x16----------
Db -4------6-x16-|-2-x16--2-x16-|X2  -0-----3----5---
Ab -4-x16--4-----|-2-x16--2-----|    -------3-x8-5-x8
Eb -2------------|-0------------|    -------1----3---

Solo

The rhythm is just like the intro

Guitar 1

Eb ------------------------------------------------------------|
Bb -14---------------------------------------------------------|
Gb ----14~--14-13-14-13-14~------14-13-14-13-14-13-14~--16-14~-|
Db ------------------------------------------------------------|
Ab ------------------------------------------------------------|
Eb ------------------------------------------------------------|

Eb ----------------------------------------|
Bb -17b19r17-15\14-15-14-12h14p12\10-12b14-|
Gb ----------------------------------------|
Db ----------------------------------------|
Ab ----------------------------------------|
Eb ----------------------------------------|

Eb -------------------------------------------14-16-16b17------|
Bb -10-12-14-10/12-14-15-12/14-15-17-14-15-17------------------|
Gb ------------------------------------------------------------|
Db ------------------------------------------------------------|
Ab ------------------------------------------------------------|
Eb ------------------------------------------------------------|

Guitar 2

Eb -12---------------------------------------------------------|
Bb ----14~--14-12-14-12-14------14-12-14-12-14-12-14~--15-14~--|
Gb ------------------------------------------------------------|
Db ------------------------------------------------------------|
Ab ------------------------------------------------------------|
Eb ------------------------------------------------------------|

Eb -16b17r16-14\12-14-12-10h12p10\9-10b12-|
Bb ---------------------------------------|
Gb ---------------------------------------|
Db ---------------------------------------|
Ab ---------------------------------------|
Eb ---------------------------------------|

Eb -9-10-12-9/10-12-14-10/12-14-16-12/14-16-17-19-19b21~-------|
Bb ------------------------------------------------------------|
Gb ------------------------------------------------------------|
Db ------------------------------------------------------------|
Ab ------------------------------------------------------------|
Eb ------------------------------------------------------------|
Добавлено: 23.04.2016
Другие материалы по этой песне:
  • Аккорды и текст

Страница создана 23.04.2016
http://primanota.ru/zebrahead/worse-than-this-chords.htm
Привет, Гость.
Предлагаем пройти революционный курс по гитаре.
Подарок от PrimaNota.Ru, забирай!