PrimaNota.ru - самый крупный в мире бесплатный архив песенных текстов, аккордов, табулатур и нот


Zebrahead - Who Brings A Knife To A Gun Fight - таба, видео

Регистрация Запомнить меня
Войти через:  Facebook Google Twitter Vk Yandex Mail.ru

Zebrahead - Who Brings A Knife To A Gun Fight - таба, видео

Печатать
Просмотров: 68
Zebrahead
Who Brings A Knife To A Gun Fight
half-step down (not required move 1 note to right?)

sitar on guitar? (!!!work in progress!!!)
eb|-2--------------------1-1-------2--|
bb|-2--2-3-2-2----2-2-3-3----3--2--2--|
gb|-3-------4--4-4-----------------3--|
db|-4------------------------------4--|
ab|-4------------------------------4--|
eb|-2------------------------------2--|

(the last note is a loop)
eb|------------|   |----------|
bb|-7-8876-767-|x3 |-3-6-32-3-|
gb|------------|   |----------|
db|------------|   |----------|
ab|------------|   |----------|
eb|------------|   |----------|
HEY!!!

main riff 
eb|-------------|   |--------------|
bb|--7-8876-767-|x3 |-3-6-3232-3/6-| end on bb|-7-|
gb|-------------|   |--------------|
db|-------------|   |--------------|
ab|-------------|   |--------------|
eb|-------------|   |--------------|

verse
eb|---------------------|
bb|---------------------|
gb|---------------------|
db|-5-45-5-45-5-5-4-4-5-|
ab|-5-45-5-45-5-5-4-4-5-|
eb|-2-32-2-32-2-3-2-2-3-|

pre-chorus (fast up and downs, tremolo like)
eb|-----------------|   |----------------|
bb|-----------------|   |----------------|
gb|-1111111111-1211-|   |-11-11-12-11-12-|
db|-----------------|x3 |----------------|
ab|--9-9-9-9-9-10-9-|   |--9--9-10--9-10-|
eb|-----------------|   |----------------|

chorus
eb|-----------------------|
bb|-----------------------|
gb|-11--------------------|
db|-11x8-1212121211111010-|x3
ab|--9---1212121211111010-|
eb|------10101010-9-9-8-8-|

eb|----------------------|
bb|----------------------|
gb|-11-------------------|
db|-11-x8-12121212-11-10-|
ab|--9----12121212-11-10-|
eb|-------10101010--9--8-|

no solo (and no work in progress...)
solo rhythm is chorus!

that's basically it, just keep repeating stuff and boom!
Добавлено: 23.04.2016
Вам также может быть интересно:
Другие материалы по этой песне:
  • Аккорды и текст

Страница создана 23.04.2016
http://primanota.ru/zebrahead/who-brings-a-knife-to-a-gun-fight-chords.htm
Привет, Гость.
Предлагаем пройти революционный курс по гитаре.
Подарок от PrimaNota.Ru, забирай!