PrimaNota.ru - самый крупный в мире бесплатный архив песенных текстов, аккордов, табулатур и нот


Zebrahead - Headrush - таба, видео

Регистрация Запомнить меня
Войти через:  Facebook Google Twitter Vk Yandex Mail.ru

Zebrahead - Headrush - таба, видео

Печатать
Просмотров: 80
Zebrahead
Headrush
Half- Step DOWN!!!

riff 1&3
eb|-------------------------------|
bb|-------------------------------|
gb|-------------------------------|
db|-9-999-999-8-5-4-444-4-5-4-2-1-|
ab|-------------------------------|
eb|-------------------------------|

riff 2
eb|------------------xx-x--xx-x-|
bb|------------------xx-x--xx-x-|
gb|-9-999-999-8-5-4--xx-x--xx-x-|
db|------------------xx-x--xx-x-|
ab|------------------xx-x--xx-x-|
eb|------------------xx-x--xx-x-|

riff4
eb|------------------------------|
bb|------------------------------|
gb|-9-999-999-8-5-4x4x5x5--(8)/9-|
db|------------------------------|
ab|------------------------------|
eb|------------------------------|

verse 1
(just mute string and wah wah to the rhythm)

chorus
eb|------------------------|
bb|------------------------|
gb|------------------------|
db|-2-22-5-7--9-7-5-7-5555-|
ab|-2-22-5-7--9-7-5-7-5555-|
eb|-0-00-3-5--7-5-3-5-3333-|

eb|--------------------|
bb|--------------------|
gb|--------------------|
db|-2-22-5-7-9-9999999-|
ab|-2-22-5-7-9-9999999-|
eb|-0-00-3-5-7-7777777-|

main riff

muted verse

verse 2 change git1 (right headphone)
eb|--------------------|
bb|--------------------|
gb|-9---11---12---16---|
db|--x8---x8---x8---x8-|
ab|-7----9---10---14---|
eb|--------------------|

verse 2 change git2 (left headphone)
eb|-----------------|
bb|-----------------|
gb|-9---8---5---4---|
db|--x8--x8--x8--x8-|
ab|-7---6---3---2---|
eb|-----------------|

solo (whammy 1 ocatave up)           (slow/delayed slide up)    
eb|-12x12-12x12x12-1212-15x15x15-16-12/--|
bb|--------------------------------------|
gb|--------------------------------------|
db|--------------------------------------|
ab|--------------------------------------|
eb|--------------------------------------|

eb|-12-------------------|---------12-|
bb|---15-13-12--12-13-12-|---12-15----|
gb|-----------13---------|-13---------|
db|----------------------|------------|
ab|----------------------|------------|
eb|----------------------|------------|

bridge git 1
eb|--------------------------|
bb|--------------------------|
gb|-9----11----12-----16-----|
db|--x16---x16----x16----x16-|
ab|-7-----9----10-----14-----|
eb|--------------------------|

the psycho killing sound can be achived when you use
the whammy pedal 1 ocatave up on high e string 
ee|-12-12-|

after solo chorus
eb|------------------------|
bb|------------------------|
gb|------------------------|
db|------------------------|
ab|-2222222-5-9999999-7-55-|
eb|-0000000-3-7777777-5-33-|
  pm......................

eb|-----------|
bb|-----------|
gb|-----------|
db|---------9-|
ab|-22222-5-9-|
eb|-00000-3-7-|
  pm........

chorus
main riff
Добавлено: 23.04.2016
Другие материалы по этой песне:
  • Аккорды и текст

Страница создана 23.04.2016
http://primanota.ru/zebrahead/headrush-chords.htm
Привет, Гость.
Предлагаем пройти революционный курс по гитаре.
Подарок от PrimaNota.Ru, забирай!