PrimaNota.ru - самый крупный в мире бесплатный архив песенных текстов, аккордов, табулатур и нот


Zebrahead - Nothing To Lose - таба, видео

Регистрация Запомнить меня
Войти через:  Facebook Google Twitter Vk Yandex Mail.ru

Zebrahead - Nothing To Lose - таба, видео

Печатать
Просмотров: 40
-------------------------------------------------------------------------------
                          Nothing to Lose - Zebrahead
-------------------------------------------------------------------------------
Tabbed by: Ralph G

Tuning: Standard

e|---------------------------------------------------------------------------|
B|---------------------------------7-6-----7-6-------------------------------|
G|-------------------------------------6-------6---8-888-10-6---6------------|
D|----4~-----3~-----4~-3-4-6-4-3-4-------8-------8------------8--------------|
A|1-4----1-4----1-4----------------------------------------------------------|
E|---------------------------------------------------------------------------|

e|---------------------------------------9----9-13----11-13-14---------------|
B|7-6-----9-7----7----11-9-11-12-11-9------11------14------------------------|
G|----6-------10---8------------------11-------------------------------------|
D|------8--------------------------------------------------------------------|
A|---------------------------------------------------------------------------|
E|---------------------------------------------------------------------------|

Добавлено: 23.04.2016
Другие материалы по этой песне:
  • Аккорды и текст

Страница создана 23.04.2016
http://primanota.ru/zebrahead/nothing-to-lose-chords.htm
Привет, Гость.
Предлагаем пройти революционный курс по гитаре.
Подарок от PrimaNota.Ru, забирай!