PrimaNota.ru - самый крупный в мире бесплатный архив песенных текстов, аккордов, табулатур и нот


The Wytches - The Holy Tightrope - таба, видео

Регистрация Запомнить меня
Войти через:  Facebook Google Twitter Vk Yandex Mail.ru

The Wytches - The Holy Tightrope - таба, видео

Печатать
Просмотров: 434
Song: The Holy Tightrope
Artist: The Wytches
Album: Wire Fame Mattress
=============================
http://www.thewytches.com
http://thewytches.tumblr.com
http://instagram.com/thewytches
http://thewytches.bandcamp.com
https://www.facebook.com/thewytches
https://soundcloud.com/thewytches
http://www.youtube.com/user/witchesmovies
https://twitter.com/thewytches
=============================


                                                                                      Uploaded:06/12/2014
Tuning: Half Step Down


        =Intro=

00:00   d#----------------|-----------------|-----------------|------------------|
        A#----8-----0---0-|-----8-----0---0-|-----8-----0---0-|-----4---/8-7-5-4-|
        F#------9-8---5---|-/9----9-8---5---|-/9----9-8---5---|-4-4---5----------|
        C#----------------|-----------------|-----------------|------------------|
        G#----------------|-----------------|-----------------|------------------|
        D#-0--------------|-----------------|-----------------|------------------|

        d#----------------|-----------------|-----------------|------------------|
        A#----8-----0---0-|-----8-----0---0-|----8------0---0-|-----4---/8-7-5-4-|
        F#------9-8---5---|-/9----9-8---5---|-/9----9-8---5---|-4-4---5----------|
        C#----------------|-----------------|-----------------|------------------|
        G#----------------|-----------------|-----------------|------------------|
        D#--0-------------|-----------------|-----------------|------------------|


        =Verse=

00:19   d#-------------------|-----------------------------|-------------------|-----------------------------|
        A#-------------------|-----------------------------|-------------------|-----------------------------|
        F#-------------------|-----------------------------|-------------------|-----------------------------|
        C#-------------------|-----------------------------|-------------------|-----------------------------|
        G#-------------------|-----------------------------|-------------------|-----------------------------|
        D#-0-2-/-7--------7\-|-0--2-/-7--7-7-3--3-/-8--8-8-|-0-2-/-7--------7\-|-0--2-/-7--7-7-3--3-/-8--8-8-|


        =Chorus=

00:38   d#------------------|----------------|----------------------------|
        A#------------------|----------------|----------------------------|
        F#------------------|----------------|----------------------------|
        C#------------------|----------------|----------------------------|
        G#-7----------------|-7-7------------|-7--------------------------|
        D#----8-/-11-\-7-7--|-----8-/-11\-7--|----8-/-11-\-7--3--3--8--8--|

        d#------------------|----------------|----------------------------|
        A#------------------|----------------|----------------------------|
        F#------------------|----------------|----------------------------|
        C#------------------|----------------|----------------------------|
        G#-7----------------|-7-7------------|-7--------------------------|
        D#----8-/-11-\-7-7--|-----8-/-11\-7--|----8-/-11-\-7--3-----8--8--|


        =Middle=

00:56   d#----------------|-----------------|-----------------|-----------------|
        A#----8-----0---0-|-----8-----0---0-|-----8-----0---0-|---------7-7-7-7-|
        F#------9-8---5---|-/9----9-8---5---|-/9----9-8---5---|-4-4-4-4/8-8-8-8-|
        C#----------------|-----------------|-----------------|-----------------|
        G#----------------|-----------------|-----------------|-----------------|
        D#-0--------------|-----------------|-----------------|-----------------|

        d#----------------|-----------------|-----------------|------------------|
        A#----8-----0---0-|-----8-----0---0-|----8------0---0-|------------------|
        F#------9-8---5---|-/9----9-8---5---|-/9----9-8---5---|-4-4-4-4-2---4-4--|
        C#----------------|-----------------|-----------------|------------------|
        G#----------------|-----------------|-----------------|------------------|
        D#--0-------------|-----------------|-----------------|------------------|

        d#---------------------|----------------13-|-12-------------|-----|
        A#---------------------|-------13-12-10----|----------------|-----|
        F#-5-5-5-4---4-5-4-5-4-|-4--4/-------------|----------------|-----|
        C#---------------------|-------------------|----------------|-----|
        G#---------------------|-------------------|-------7/8-7--5-|-7---|
        D#---------------------|-------------------|----------------|-0---|


        =Verse=

01:26   (Feedback and stuff)


        =Chorus=

01:43   d#------------------|----------------|----------------------------|
        A#------------------|----------------|----------------------------|
        F#------------------|----------------|----------------------------|
        C#------------------|----------------|----------------------------|
        G#-7----------------|-7-7------------|-7--------------------------|
        D#----8-/-11-\-7-7--|-----8-/-11\-7--|----8-/-11-\-7--3--3--8--8--|

        d#------------------|----------------|----------------------------|
        A#------------------|----------------|----------------------------|
        F#------------------|----------------|----------------------------|
        C#------------------|----------------|----------------------------|
        G#-7----------------|-7-7------------|-7--------------------------|
        D#----8-/-11-\-7-7--|-----8-/-11\-7--|----8-/-11-\-7--3-----8--8--|


        =Solo=

02:02   d#------------|-----------------|----------------------|
        A#------------|-----------------|----------------------|
        F#------------|-----------------|----------------------|
        C#------------|-----------------|----------------------|
        G#------------|-----------------|----3--3----3----3----|
        D#-0--2-/-7---|-7-7-8-7-5-7-5-3-|-2-------2----2----1--|

        d#------------|-----------------|----------------------|
        A#------------|-----------------|----------------------|
        F#------------|-----------------|----------------------|
        C#------------|-----------------|----------------------|
        G#------------|-----------------|----3--3----3----3----|
        D#-0--2-/-7---|-7-7-8-7-5-7-5-3-|-2-------2----2----1--|

        d#----------------|-----------------|-----------------|-----------------|
        A#----8-----0---0-|-----8-----0---0-|-----8-----0---0-|---------7-7-7-7-|
        F#------9-8---5---|-/9----9-8---5---|-/9----9-8---5---|-4-4-4-4/8-8-8-8-|
        C#----------------|-----------------|-----------------|-----------------|
        G#----------------|-----------------|-----------------|-----------------|
        D#-0--------------|-----------------|-----------------|-----------------|

        d#----------------|-----------------|-----------------|-----------------|
        A#----8-----0---0-|-----8-----0---0-|----8------0---0-|-----------------|
        F#------9-8---5---|-/9----9-8---5---|-/9----9-8---5---|-4-4-4-4-2---5---|
        C#----------------|-----------------|-----------------|-----------------|
        G#----------------|-----------------|-----------------|-----------------|
        D#--0-------------|-----------------|-----------------|-----------------|

        d#----------------|----------------|
        A#----------------|--------7-7-7-7-|
        F#-4--5-4/9-9-9-9-|-4--5-4/8-8-8-8-|
        C#----------------|----------------|
        G#----------------|----------------|
        D#----------------|----------------|

        d#--------------------------------------|-----3-------5-------3-------5-------|---------|
        A#--------10-------10------10------10---|---5---5---4---4---5---5---4---4-----|---------|
        F#-/10-10----10-9-----9-8-----8-7-----7-|-5-------4-------5-------4-------5---|-\4------|
        C#--------------------------------------|-------------------------------------|---------|
        G#--------------------------------------|-------------------------------------|---------|
        D#--------------------------------------|-------------------------------------|---------|



                               =========================================
                                Don't forget to rate! that helps a lot!
                               =========================================



-¬-¬-¬-¬-¬-¬-¬-¬-¬-¬-¬-¬-¬-¬-¬-¬-¬-¬-¬-¬
-f.alejandro27@gmail.com
-www.confort-reciclado.tumblr.com
-www.last.fm/user/mr_ahab

Добавлено: 29.06.2015
Другие материалы по этой песне:
  • Аккорды и текст

Страница создана 29.06.2015
http://primanota.ru/wytches/holy-tightrope-chords.htm
Привет, Гость.
Предлагаем пройти революционный курс по гитаре.
Подарок от PrimaNota.Ru, забирай!