PrimaNota.ru - самый крупный в мире бесплатный архив песенных текстов, аккордов, табулатур и нот


The Wytches - Wastybois - таба, видео

Регистрация Запомнить меня
Войти через:  Facebook Google Twitter Vk Yandex Mail.ru

The Wytches - Wastybois - таба, видео

Печатать
Просмотров: 131
Song: Wastybois
Artist: The Wytches
Album: Wastybois / Barstool Blues
=============================
http://www.thewytches.com
http://thewytches.tumblr.com
http://instagram.com/thewytches
http://thewytches.bandcamp.com
https://www.facebook.com/thewytches
https://soundcloud.com/thewytches
http://www.youtube.com/user/witchesmovies
https://twitter.com/thewytches
=============================


                                                                                      Uploaded:22/04/2015
        =Intro=

00:12   e-----------------------------|-----------------------------|
        B-5--5-5-5--5-5-5--5-5-5--5-5-|-5--5-5-5--5-5-5--5-5-5--5-5-|
        G-6--6-6-6--6-6-6--6-6-6--6-6-|-6--6-6-6--6-6-6--6-6-6--6-6-|
        D-7--7-7-7--7-7-7--7-7-7--7-7-|-7--7-7-7--7-7-7--7-7-7--7-7-|
        A-7--7-7-7--7-7-7--7-7-7--7-7-|-7--7-7-7--7-7-7--7-7-7--7-7-|
        E-5--5-5-5--5-5-5--5-5-5--5-5-|-5--5-5-5--5-5-5--5-5-5--5-5-|

        e-----------------------------|-----------------------------|-----------------------------|
        B-5--5-5-5--5-5-5--5-5-5--5-5-|-5--5-5-5--5-5-5--5-5-5--5-5-|-5--5-5-5--5-5-5--5-5-5--5-5-|
        G-6--6-6-6--6-6-6--6-6-6--6-6-|-6--6-6-6--6-6-6--6-6-6--6-6-|-6--6-6-6--6-6-6--6-6-6--6-6-|
        D-7--7-7-7--7-7-7--7-7-7--7-7-|-7--7-7-7--7-7-7--7-7-7--7-7-|-7--7-7-7--7-7-7--7-7-7--7-7-|
        A-7--7-7-7--7-7-7--7-7-7--7-7-|-7--7-7-7--7-7-7--7-7-7--7-7-|-7--7-7-7--7-7-7--7-7-7--7-7-|
        E-5--5-5-5--5-5-5--5-5-5--5-5-|-5--5-5-5--5-5-5--5-5-5--5-5-|-5--5-5-5--5-5-5--5-5-5--5-5-|


        =Verse 1=

00:26   e---------------------------------|---------------------------------|
        B-5-5-5-5-5-5-5-5-5-5-5-5-5-5-5-5-|-4-4-4-4-4-4-4-4-4-4-4-4-4-4-4-4-| 2x
        G-6-6-6-6-6-6-6-6-6-6-6-6-6-6-6-6-|-5-5-5-5-5-5-5-5-5-5-5-5-5-5-5-5-|
        D-7-7-7-7-7-7-7-7-7-7-7-7-7-7-7-7-|-6-6-6-6-6-6-6-6-6-6-6-6-6-6-6-6-|
        A-7-7-7-7-7-7-7-7-7-7-7-7-7-7-7-7-|-6-6-6-6-6-6-6-6-6-6-6-6-6-6-6-6-|
        E-5-5-5-5-5-5-5-5-5-5-5-5-5-5-5-5-|-4-4-4-4-4-4-4-4-4-4-4-4-4-4-4-4-|

        e-----------------------------------------|---------------------------------|
        B-7-7-7-7-7-7-7-7--8--8--8--8--8--8--8--8-|-5-5-5-5-5-5-5-5-4-4-4-4-4-4-4-4-| 2x
        G-8-8-8-8-8-8-8-8--9--9--9--9--9--9--9--9-|-6-6-6-6-6-6-6-6-5-5-5-5-5-5-5-5-|
        D-9-9-9-9-9-9-9-9-10-10-10-10-10-10-10-10-|-7-7-7-7-7-7-7-7-6-6-6-6-6-6-6-6-|
        A-9-9-9-9-9-9-9-9-10-10-10-10-10-10-10-10-|-7-7-7-7-7-7-7-7-6-6-6-6-6-6-6-6-|
        E-7-7-7-7-7-7-7-7--8--8--8--8--8--8--8--8-|-5-5-5-5-5-5-5-5-4-4-4-4-4-4-4-4-|

        e------------------------------------------------|
        B------------------------------------------------|
        G------------------------------------------------|
        D----7-------------------------------------------|
        A-------8--7--6h7p6h7p6h7p6h7p6------------------|
        E-5----------------------------------------------|


        =Verse 2=

00:56   e---------------------------------|---------------------------------|
        B-5-5-5-5-5-5-5-5-5-5-5-5-5-5-5-5-|-4-4-4-4-4-4-4-4-4-4-4-4-4-4-4-4-| 2x
        G-6-6-6-6-6-6-6-6-6-6-6-6-6-6-6-6-|-5-5-5-5-5-5-5-5-5-5-5-5-5-5-5-5-|
        D-7-7-7-7-7-7-7-7-7-7-7-7-7-7-7-7-|-6-6-6-6-6-6-6-6-6-6-6-6-6-6-6-6-|
        A-7-7-7-7-7-7-7-7-7-7-7-7-7-7-7-7-|-6-6-6-6-6-6-6-6-6-6-6-6-6-6-6-6-|
        E-5-5-5-5-5-5-5-5-5-5-5-5-5-5-5-5-|-4-4-4-4-4-4-4-4-4-4-4-4-4-4-4-4-|

        e-----------------------------------------|---------------------------------|
        B-7-7-7-7-7-7-7-7--8--8--8--8--8--8--8--8-|-5-5-5-5-5-5-5-5-4-4-4-4-4-4-4-4-| 2x
        G-8-8-8-8-8-8-8-8--9--9--9--9--9--9--9--9-|-6-6-6-6-6-6-6-6-5-5-5-5-5-5-5-5-|
        D-9-9-9-9-9-9-9-9-10-10-10-10-10-10-10-10-|-7-7-7-7-7-7-7-7-6-6-6-6-6-6-6-6-|
        A-9-9-9-9-9-9-9-9-10-10-10-10-10-10-10-10-|-7-7-7-7-7-7-7-7-6-6-6-6-6-6-6-6-|
        E-7-7-7-7-7-7-7-7--8--8--8--8--8--8--8--8-|-5-5-5-5-5-5-5-5-4-4-4-4-4-4-4-4-|

        e------------------------------------------------|
        B------------------------------------------------|
        G------------------------------------------------|
        D----7-------------------------------------------|
        A-------8--7--6h7p6h7p6h7p6h7p6------------------|
        E-5----------------------------------------------|


        =Solo=

01:25   e------------------------------------------------|
        B------------------------------------------------|
        G------------------------------------------------|
        D----7-------------------------------------------|
        A------/8--7--6h7p6h7p6h7p6h7p6------------------|
        E-5----------------------------------------------|

        e------------------------|-----------------------------------------|
        B------------------------|-----------------------------------------|
        G------------------------|----5--4---------------------------------|
        D----7----------------6--|-7--------7--6--3--2h3p2h3p2--0--2-3-----|
        A-------8--7--6-7--8-----|-----------------------------------------|
        D-5----------------------|--------------------------------------4--|

        e------------------------|---------------------------------------------|---------------------|
        B------------------------|---------------------------------------------|---------------------|
        G------------------------|----5--4h5p4---------------------------------|-------------x-x-x-x-|
        D----7----------------6--|-7------------7--6--3--2h3p2h3p2--0--2-3-----|-------------x-x-x-x-|
        A-------8--7--6-7--8-----|---------------------------------------------|-------------x-x-x-x-|
        D-5----------------------|------------------------------------------4--|-5~~~~~~~~-----------|


        =Outro=

02:04   e------------------------------------------------|----------------------------------|
        B--8--8--8--8--8--8--8--8--8--8--8--8--8--8--8---|----------------------------------| 4x
        G--9--9--9--9--9--9--9--9--9--9--9--9--9--9--9-x-|--------x------x---------x------x-|
        D-10-10-10-10-10-10-10-10-10-10-10-10-10-10-10-x-|--------x------x---------x------x-|
        A--0--0--0--0--0--0--0--0--0--0--0--0--0--0--0-x-|-13-13--x-9-9--x--13-13--x-9-9--x-|
        E------------------------------------------------|-11-11----7-7-----11-11----7-7----|


        =Bass Solo Part=

02:27   e----------------------------------|
        B-0~~~~~~--------------------------| 8x
        G-5~~~~~~--------------------------|
        D-7~~~~~~--------------------------|
        A-0~~~~~~--------------------------|
        E----------------------------------|




                               =========================================
                                don't forget to rate! that helps a lot!
                               =========================================
                                                  &    
                             =============================================
                             give me credit if you're using any of my tabs
                             =============================================


¨¨¨¨¨¨¨¨¨¨¨¨¨¨¨¨¨¨¨¨¨¨¨¨¨¨¨¨¨¨¨¨¨¨
-www.confort-reciclaclo.tumblr.com
-www.facebook.com/I.Really.Sux
-www.last.fm/user/mr_ahab
-f.alejandro27@gmail.com
Добавлено: 16.09.2015
Другие материалы по этой песне:
  • Аккорды и текст

Страница создана 16.09.2015
http://primanota.ru/wytches/wastybois-chords.htm
Привет, Гость.
Предлагаем пройти революционный курс по гитаре.
Подарок от PrimaNota.Ru, забирай!