PrimaNota.ru - самый крупный в мире бесплатный архив песенных текстов, аккордов, табулатур и нот


The Wytches - If Not For Money - таба, видео

Регистрация Запомнить меня
Войти через:  Facebook Google Twitter Vk Yandex Mail.ru

The Wytches - If Not For Money - таба, видео

Печатать
Просмотров: 151
Song: If Not For Money
Artist: The Wytches
Album: -
=============================
http://www.thewytches.com
http://thewytches.tumblr.com
http://instagram.com/thewytches
http://thewytches.bandcamp.com
https://www.facebook.com/thewytches
https://soundcloud.com/thewytches
http://www.youtube.com/user/witchesmovies
https://twitter.com/thewytches
=============================   



        As soon as the studio version is released I'll be correcting the tab    

        ~ : whammy bar
       

        =Intro=

        e---------------|-5~------------|---------------|-5~-----7~-----|
        B-------1-------|-6~------------|-------1-------|-6~-----8~-----|
        G-----4---4~----|-7~------------|-----4---4~----|-7~-----9~-----|
        D---2-----------|-7~------------|---2-----------|-7~-----9~-----|
        A-3-------------|-5~------------|-3-------------|-5~-----7~-----|
        E---------------|---------------|---------------|---------------|


        =Verse=

        e---------------|-5~-----7~-----|---------------|-5~-----7~-----|
        B-------1-------|-6~-----8~-----|-------1-------|-6~-----8~-----|
        G-----4---4~----|-7~-----9~-----|-----4---4~----|-7~-----9~-----|
        D---2-----------|-7~-----9~-----|---2-----------|-7~-----9~-----|
        A-3-------------|-5~-----7~-----|-3-------------|-5~-----7~-----|
        E---------------|---------------|---------------|---------------|

        e---------------|-5~------------|---------------|-5~-----5~-----|
        B-------1-------|-6~------------|-------1-------|-6~------------|
        G-----4---4~----|-7~------------|-----4---4~----|-7~------------|
        D---2-----------|-7~------------|---2-----------|-7~------------|
        A-3-------------|-5~------------|-3-------------|-5~------------|
        E---------------|---------------|---------------|---------------|


        =Chorus=

        e-1~------------|-0~----------0--|-1~--------0---|-----------------|
        B-1~------------|-0~----------0--|-3~--------1-1-|-----------------|
        G-1~------------|-0~----------0--|-2~--------2-2-|-----4-----4-4-4-|
        D-3~------------|-2~----------2--|-0~--------3-3-|---5-5-5-5-5-5-5-|
        A-3~------------|-2~----------2--|-----------3---|-5-5-5-5-5-5-5-5-|
        E-1~------------|-0~----------0--|---------------|-3-3-3-3-3-3-3-3-|


        =Solo=

        e---------------------|----------------------------------------------|
        B-1--1--1-1-1--1-3-3/-|-5----5/6\5-3-/-8---10\5---5\1-3-3/5---6\5--3-|
        G-0--0--0-0-0---------|----------------------------------------------|
        D-2--2--2-2-2---------|----------------------------------------------|
        A-3--3--3-3-3---------|----------------------------------------------|
        E---------------------|----------------------------------------------|


        =Verse=

        e---------------|-5~-----7~-----|---------------|-5~-----7~-----|
        B-------1-------|-6~-----8~-----|--------1------|-6~-----8~-----|
        G-----4---4~----|-7~-----9~-----|-----4---4~----|-7~-----9~-----|
        D---2-----------|-7~-----9~-----|---------------|-7~-----9~-----|
        A-3-------------|---------------|-3-------------|-5~------------|
        E---------------|---------------|---------------|---------------|
                                 
        e---------------|-5~----(12x)---|---------------|-5~-----5-5~---|
        B-------1-------|-6~----(12x)---|-------1-------|-6~------------|
        G-----4---4~----|-7~----(12x)---|-----4---4~----|-7~------------|
        D---2-----------|-7~----(12x)---|---2-----------|-7~------------|
        A-3-------------|-5~------------|-3-------------|-5~------------|
        E---------------|---------------|---------------|---------------|


        =Chorus=

        e-1~------------|-0~----------0--|-1~--------0---|-----------------|
        B-1~------------|-0~----------0--|-3~--------1-1-|-----------------|
        G-1~------------|-0~----------0--|-2~--------2-2-|-----4-----4-4-4-|
        D-3~------------|-2~----------2--|-0~--------3-3-|---5-5-5-5-5-5-5-|
        A-3~------------|-2~----------2--|-----------3---|-5-5-5-5-5-5-5-5-|
        E-1~------------|-0~----------0--|---------------|-3-3-3-3-3-3-3-3-|


        =Solo=

        e---------------------|--------------------------------------------------|
        B-1--1--1-1-1--1-3-3/-|-5----6\5-3-/8-8--10\5---5\1-3-3/5---6\5--3-------|
        G-0--0--0-0-0---------|--------------------------------------------------|
        D-2--2--2-2-2---------|--------------------------------------------------|
        A-3--3--3-3-3---------|---------------------------------------------2h3--|
        E---------------------|--------------------------------------------------|


        =Outro=

        e---------------|-5~--------7~--|---------------|-5~--------7~--|
        B-------1-------|-6~--------8~--|-------1-------|-6~--------8~--|
        G-4---4---4~----|-7~--------9~--|---4-----4~----|-7~--------9~--|
        D-2-------------|-7~------------|---------------|-7~--------9~--|
        A-3-------------|---------------|-3-------------|-5~--------7~--|
        E---------------|---------------|---------------|---------------|

        e---------------|-5~--------7~--|---------------|------5------------|---------------|
        B-------1-------|-6~--------8~--|-------1-------|--------6----------|---------------|
        G---4-----4~----|-7~--------9~--|-----4---4~----|--7-7--------------|---------------|
        D---------------|-7~--------9~--|---2-----------|-------------------|---------------|
        A-3-------------|-5~--------7~--|-3-------------|-5----------2h3-2--|-2-b-----------|
        E---------------|---------------|---------------|-------------------|---------------|




                               =========================================
                                don't forget to rate! that helps a lot!
                               =========================================
                                                  &    
                             =============================================
                             give me credit if you're using any of my tabs
                             =============================================


¨¨¨¨¨¨¨¨¨¨¨¨¨¨¨¨¨¨¨¨¨¨¨¨¨¨¨¨¨¨¨¨¨¨
-www.confort-reciclaclo.tumblr.com
-www.facebook.com/I.Really.Sux
-www.last.fm/user/mr_ahab
-f.alejandro27@gmail.com



Добавлено: 16.09.2015
Другие материалы по этой песне:
  • Аккорды и текст

Страница создана 16.09.2015
http://primanota.ru/wytches/if-not-for-money-chords.htm
Привет, Гость.
Предлагаем пройти революционный курс по гитаре.
Подарок от PrimaNota.Ru, забирай!