PrimaNota.ru - самый крупный в мире бесплатный архив песенных текстов, аккордов, табулатур и нот


The Wytches - Shes So Far Out - таба, видео

Регистрация Запомнить меня
Войти через:  Facebook Google Twitter Vk Yandex Mail.ru

The Wytches - Shes So Far Out - таба, видео

Печатать
Просмотров: 149
Song: She's So Far Out
Artist: The Wytches
Album: Thunder Lizard Revisited
=============================
http://www.thewytches.com
http://thewytches.tumblr.com
http://instagram.com/thewytches
http://thewytches.bandcamp.com
https://www.facebook.com/thewytches
https://soundcloud.com/thewytches
http://www.youtube.com/user/witchesmovies
https://twitter.com/thewytches
=============================



                                                                                      Uploaded:14/04/2015
        =Intro= 
             Patterns to follow
          |   Live   || Studio  |  
00:00   e-------0-----------0-----------0-----------0-----|-------0-----------0-----------0-----------------|
        B-------------------------------------------------|-------------------------------------------------|2x
        G---7-------7-----7-----7---7-------7---7---------|---7-----7-----7-------7---7-----7-----7-----7---|
        D-----9---9-----9-----9-------9---9-------9---9---|-----------9---------9-------------9-------9---9-|
        A-----------------------------------------------0-|-------------------------------------------------|
        E-0-----------0-----------0-----------0-----------|-6---6-------6---6-------6---6-------6---6-------|

        
        =Verse= 
        
00:34   e-------0-----------0-----------0-----------0-----|-------------------------|-------------------------|
        B-------------------------------------------------|-------------------------|-------------------------|
        G---7-------7---7-------7---7-------7---7---------|-7-7-7-7-7-7-7-7-7-7-7-7-|-7-7-7-7-7-7-7-7-7-7-7-7-|
        D-----9---9-------9---9-------9---9-------9---9---|-9-9-9-9-9-9-9-9-9-9-9-9-|-9-9-9-9-9-9-9-9-9-9-9-9-|
        A-----------------------------------------------0-|-x-x-x-x-x-x-x-x-x-x-x-x-|-x-x-x-x-x-x-x-x-x-x-x-x-|
        E-0-----------0-----------0-----------0-----------|-6-6-6-6-6-6-6-6-6-6-6-6-|-6-6-6-6-6-6-6-6-6-6-6-6-|


        =Chorus=

00:50   e-----------------------------------------------|---------------------------------------|
        B-----------------------------------------------|---------------------------------------|
        G-----------------------------------------------|---------------------------------------|
        D-14---14-14-13-10---10-10---10-10---10-10-10-0-|-3---3-3-3-3/-6---6-6---6-6---6-6-6-6/-|
        A-14---14-14-13-10---10-10---10-10---10-10-10-0-|-3---3-3-3-3/-6---6-6---6-6---6-6-6-6/-|
        E-12---12-12-11-8----8--8----8--8----8--8--8--0-|-1---1-1-1-1/-4---4-4---4-4---4-4-4-4/-|

        e-----------------------------------------------|---------------------------------------|
        B-----------------------------------------------|---------------------------------------|
        G-----------------------------------------------|---------------------------------------|
        D-14---14-14-13-10---10-10---10-10---10-10-10-0-|-3---3-3-3-3/-6------------------------|
        A-14---14-14-13-10---10-10---10-10---10-10-10-0-|-3---3-3-3-3/-6------------------------|
        E-12---12-12-11-8----8--8----8--8----8--8--8--0-|-1---1-1-1-1/-4------------------------|


        =Verse=

01:15   e-------0-----------0-----------0-----------0-----|-------0-----------0-----------------------------|
        B-------------------------------------------------|-------------------------------------------------|
        G---7-------7---7-------7---7-------7---7---------|---7-----7-----7-------7-7-7-7-7-7-7-7-7-7-7-7-7-|
        D-----9---9-------9---9-------9---9-------9---9---|-----------9---------9---9-9-9-9-9-9-9-9-9-9-9-9-|
        A-----------------------------------------------0-|-------------------------x-x-x-x-x-x-x-x-x-x-x-x-|
        E-0-----------0-----------0-----------0-----------|-6---6-------6---6-------6-6-6-6-6-6-6-6-6-6-6-6-|


        =Chorus=

01:32   e-----------------------------------------------|---------------------------------------|
        B-----------------------------------------------|---------------------------------------|
        G-----------------------------------------------|---------------------------------------|
        D-14---14-14-13-10---10-10---10-10---10-10-10-0-|-3---3-3-3-3/-6---6-6---6-6---6-6-6-6/-|
        A-14---14-14-13-10---10-10---10-10---10-10-10-0-|-3---3-3-3-3/-6---6-6---6-6---6-6-6-6/-|
        E-12---12-12-11-8----8--8----8--8----8--8--8--0-|-1---1-1-1-1/-4---4-4---4-4---4-4-4-4/-|

        e-----------------------------------------------|---------------------------------------|
        B-----------------------------------------------|---------------------------------------|
        G-----------------------------------------------|---------------------------------------|
        D-14---14-14-13-10---10-10---10-10---10-10-10-0-|-3---3-3-3-3/-6---6-6---6-6---6-6-6-6--|
        A-14---14-14-13-10---10-10---10-10---10-10-10-0-|-3---3-3-3-3/-6---6-6---6-6---6-6-6-6--|
        E-12---12-12-11-8----8--8----8--8----8--8--8--0-|-1---1-1-1-1/-4---4-4---4-4---4-4-4-4--|

       "..far ooooout"     "she's so far ooooooooout"
        e--------------------------|--------------------------|
        B--------------------------|--------------------------| 2x
        G-1---1-1-1-1/-7---7-7-7-7-|-1---1-1-1-1/-7---7-7-7-7-|
        D-2---2-2-2-2/-8---8-8-8-8-|-2---2-2-2-2/-8---8-8-8-8-|
        A-2---2-2-2-2/-8---8-8-8-8-|-2---2-2-2-2/-8---8-8-8-8-|
        E-0---0-0-0-0/-6---6-6-6-6-|-0---0-0-0-0/-6---6-6-6-6-|

        e-------0-----------0-----------0-----------0-----|-------0-----------0-----------0-----------------|
        B-------------------------------------------------|-------------------------------------------------|2x
        G---7-------7---7-------7---7-------7---7---------|---7-----7-----7-------7---7-----7-----7-----7---|
        D-----9---9-------9---9-------9---9-------9---9---|-----------9---------9-------------9-------9---9-|
        A-----------------------------------------------0-|-------------------------------------------------|
        E-0-----------0-----------0-----------0-----------|-6---6-------6---6-------6---6-------6---6-------|

       "..far ooooout"     "she's so far oooout"
        e--------------------------|--------------------------|         e------------------|
        B--------------------------|--------------------------| 2x      B------------------|
        G-1---1-1-1-1/-8---7-7-7-7-|-1---1-1-1-1/-8---7-7-7-7-|         G-1----------------|
        D-2---2-2-2-2/-8---8-8-8-8-|-2---2-2-2-2/-8---8-8-8-8-|         D-2----------------|
        A-2---2-2-2-2/-8---8-8-8-8-|-2---2-2-2-2/-8---8-8-8-8-|         A-2----------------|
        E-0---0-0-0-0/-6---6-6-6-6-|-0---0-0-0-0/-6---6-6-6-6-|         E-0----------------|

                                                              slide slowly and gently
        e----------------|-----------------|-----------------|-----------------|
        B----------------|-----------------|-----------------|-----------------|
        G----------------|-----------------|-----------------|-----------------|
        D----------------|-----------------|-----------------|-----------------|
        A----------------|-----------------|-----------------|-----------------|
        E----------------|-----------------|-----------------|---------6/14----|


        =Final Part=

03:02   e-----------------------------------------------|---------------------------------------|
        B-----------------------------------------------|---------------------------------------|
        G-----------------------------------------------|---------------------------------------|
        D-14---14-14-13-10---10-10---10-10---10-10-10-0-|-3---3-3-3-3/-6---6-6---6-6---6-6-6-6/-|
        A-14---14-14-13-10---10-10---10-10---10-10-10-0-|-3---3-3-3-3/-6---6-6---6-6---6-6-6-6/-|
        E-12---12-12-11-8----8--8----8--8----8--8--8--0-|-1---1-1-1-1/-4---4-4---4-4---4-4-4-4/-|

                                                          -------------3x---------
        e-----------------------------------------------|--------------------------|--------------------|
        B-----------------------------------------------|--------------------------|--------------------|
        G-----------------------------------------------|--------------------------|--------------------|
        D-14---14-14-13-10---10-10---10-10---10-10-10-0-|-3---3-3-3-3/-6---6-6-5-4-|-3---3-3-3-3/-6-----|
        A-14---14-14-13-10---10-10---10-10---10-10-10-0-|-3---3-3-3-3/-6---6-6-5-4-|-3---3-3-3-3/-6-----|
        E-12---12-12-11-8----8-8-----8-8-----8--8--8--0-|-1---1-1-1-1/-4---4-4-3-2-|-1---1-1-1-1/-4-----|
                
                                                
        e--------------------------|------------------------------------|
        B--------------------------|------------------------------------| 2x
        G-1---1-1-1-1/-7---7-7-7-7-|-13---13-13-13-13/-19---19-19-19-19-|
        D-2---2-2-2-2/-8---8-8-8-8-|-14---14-14-14-14/-20---20-20-20-20-|
        A-2---2-2-2-2/-8---8-8-8-8-|-14---14-14-14-14/-20---20-20-20-20-|
        E-0---0-0-0-0/-6---6-6-6-6-|-12---12-12-12-12/-18---18-18-18-18-|


        e-----------------|
        B-----------------|
        G-1---------------|
        D-2---------------|
        A-2---------------|
        E-0---------------|


                     


                               =========================================
                                don't forget to rate! that helps a lot!
                               =========================================
                                                  &    
                             =============================================
                             give me credit if you're using any of my tabs
                             =============================================


¨¨¨¨¨¨¨¨¨¨¨¨¨¨¨¨¨¨¨¨¨¨¨¨¨¨¨¨¨¨¨¨¨¨
-www.confort-reciclaclo.tumblr.com
-www.facebook.com/I.Really.Sux
-www.last.fm/user/mr_ahab
-f.alejandro27@gmail.com

Добавлено: 16.09.2015
Вам также может быть интересно:
Другие материалы по этой песне:
  • Аккорды и текст

Страница создана 16.09.2015
http://primanota.ru/wytches/shes-so-far-out-chords.htm
Привет, Гость.
Предлагаем пройти революционный курс по гитаре.
Подарок от PrimaNota.Ru, забирай!