PrimaNota.ru - самый крупный в мире бесплатный архив песенных текстов, аккордов, табулатур и нот


The Wytches - Digsaw - таба, бас-таба, видео

Регистрация Запомнить меня
Войти через:  Facebook Google Twitter Vk Yandex Mail.ru

The Wytches - Digsaw - таба, бас-таба, видео

Печатать
Просмотров: 176
Авторы: The Wytches

-------------------------------------------------------------------------------
                             Digsaw - The Wytches
-------------------------------------------------------------------------------
Tabbed by:jack Dalé 

Tuning:standard

(From around 0:12 into the song)

 VERSE
e|---------------------------------------------------------------------------|
B|---------------------------------------------------------------------------|
G|--2/14--------------6-6-7-6-------6-6-7-6-------6-6-7-6-------6-6-7-6------|
D|-------------7-7-8-7-------7-7-8-7-------7-7-8-7-------7-7-8-7-------------|
A|---------------------------------------------------------------------------|
E|---------------------------------------------------------------------------|

e|---------------------------------------------------------------------------|
B|--8-7----------------------------------------------------------------------|
G|-----8-7-------------------------------------------------------------------|
D|--------8-7-5--------------------------------------------------------------|
A|---------------------------------------------------------------------------|
E|---------------------------------------------------------------------------|

e|---------------------------------------------------------------------------|
B|---------------------------------------------------------------------------|
G|-----5---------5---------5---------5---------------------------------------|
D|--7----8--5-7----8--5-7----8--5-7----8--5-7--------------------------------|
A|---------------------------------------------------------------------------|
E|---------------------------------------------------------------------------|
 CHORUS
e|---------------------------------------------------------------------------|
B|---------------------------------------------------------------------------|
G|---------------------------------------------------------------------------|
D|---------------------------------------------------------------------------|    X4
A|--7-7-7-7-7-10-10-10-8-8-8-8-8-5-5-5---------------------------------------|
E|--5-5-5-5-5-8- 8- 8- 6-6-6-6-6-3-3-3---------------------------------------|    
 Repeat the first verse and the chorus 

 Guitar Solo
e|---------------------------------------------------------------------------|
B|---------------------------------------------------------------------------|
G|-------------5--------------7-5---7-5---------6----------------------------|
D|--7--5-5-7-8---8-7-5-7-8-7------7-----7-5-7-8---8-7-5----------------------|
A|---------------------------------------------------------------------------|
E|---------------------------------------------------------------------------|

e|--6543---------------------------------------------------------------------|
B|------7654-----------7654--------------------------------------------------|
G|-----------5-7-5-3-2------7-6-----------5-7-8-8-7-5---5--------------------|
D|------------------------------7-5-5-7-8-------------7---7--5-7-8-5---------|
A|---------------------------------------------------------------------------|
E|---------------------------------------------------------------------------|
 Then repeat the verse

 The Bass in the verse in case you wanted it is
e|---------------------------------------------------------------------------|
B|---------------------------------------------------------------------------|
G|---------------------------------------------------------------------------|
D|---------------------------------------------------------------------------|
A|---------------------------------------------------------------------------|
E|--5-5-5-5-5-5-8-6-6-6-6-6-6-3------------------------------------------------------------|


************************************

| /   slide up
| \   slide down
| h   hammer-on
| p   pull-off
| ~   vibrato
| +   harmonic
| x   Mute note
| b   Bend
| pb  Pre-bend
| br  Bend release
| pbr Pre-bend release
| brb Bend release bend

************************************
Добавлено: 24.11.2014
Другие материалы по этой песне:
  • Аккорды и текст

Страница создана 11.11.2014
http://primanota.ru/wytches/digsaw-chords.htm
Привет, Гость.
Предлагаем пройти революционный курс по гитаре.
Подарок от PrimaNota.Ru, забирай!