PrimaNota.ru - самый крупный в мире бесплатный архив песенных текстов, аккордов, табулатур и нот


Wavves - My Head Hurts - таба, видео

Регистрация Запомнить меня
Войти через:  Facebook Google Twitter Vk Yandex Mail.ru

Wavves - My Head Hurts - таба, видео

Печатать
Просмотров: 56
Band : WAVVES
Song : My Head Hurts
Album: V (2015)

Tabbed by: Kovács Márk
E-mail   : nidaleop@gmail.com

Tuning   : EADGBe (Standard)
---------------------------------------------------------------------------------------------------------------

-(fast pick the notes, i wrote this like this because it's easier to read)
-(you can play the intro between the 12th and the 9th fret, easier but this sounds more like the studio ver)

  INTRO
(0:06-0:24)

     2x     then

e|------------|-8--7--3--2-|-8--7--10--8--7--|
B|-8--5--3--0-|------------|-----------------|
G|------------|------------|-----------------|
D|------------|------------|-----------------|
A|------------|------------|-----------------|
E|------------|------------|-----------------|

2nd part:

     2x     then

e|------------|-8--7--3--2-|-8--7--10hb--------|
B|-8--5--3--0-|------------|-------------------|
G|------------|------------|-------------------|
D|------------|------------|-------------------|
A|------------|------------|-------------------|
E|------------|------------|-------------------|


Chords:

Verses: G, Em, C
Choruses: G, B, Em, C
Bridge: Em, C, G


Playing Order: 
Verse         (G, Em, C)
Chorus        (G, B, Em, C)
Verse         (G, Em, C)
Chorus        (G, B, Em, C)
Bridge        (Em, C, G)
Chorus        (G, B, Em, C)


hb=half bend (up)
Добавлено: 13.02.2016
Вам также может быть интересно:
Другие материалы по этой песне:
  • Аккорды и текст

Страница создана 13.02.2016
http://primanota.ru/wavves/my-head-hurts-chords.htm
Привет, Гость.
Предлагаем пройти революционный курс по гитаре.
Подарок от PrimaNota.Ru, забирай!