PrimaNota.ru - самый крупный в мире бесплатный архив песенных текстов, аккордов, табулатур и нот


Wavves - Wait - таба, видео

Регистрация Запомнить меня
Войти через:  Facebook Google Twitter Vk Yandex Mail.ru

Wavves - Wait - таба, видео

Печатать
Просмотров: 91
Уроки эстрадного вокала в Санкт-Петербурге
WAVVES
"Wait"
From the album "V" (2015)

Standard Tuning
Tempo: 161 bpm

 Verses
       C                  Am                G#                      A#
|------8------8-----|-----5-----5-----|-----4-----4-----|-----4-----6-6-6--|
|------8------8-----|-----5-----5-----|-----4-----4-----|-----4-----6-6-6--|
|------9------9-----|-----5-----5-----|-----5-----5-----|-----5-----7-7-7--|
|-----10-----10-----|-----7-----7-----|-----6-----6-----|-----6-----8-8-8--|
|-----10-----10-----|-----7-----7-----|-----6-----6-----|-----6-----8-8-8--|
|-8-8--8-8-8--8-8-8-|-5-5-5-5-5-5-5-5-|-4-4-4-4-4-4-4-4-|-4-4-4-4-4-6-6-6--|


 Chorus
  C                 G#                C                 G#
|-----------------|-----------------|-----------------|-----------------|
|-5-5-5-5-5-5-5-5-|-----------------|-5-5-5-5-5-5-5-5-|-----------------|
|-5-5-5-5-5-5-5-5-|-5-5-5-5-5-5-5-5-|-5-5-5-5-5-5-5-5-|-5-5-5-5-5-5-5-5-|
|-5-5-5-5-5-5-5-5-|-6-6-6-6-6-6-6-6-|-5-5-5-5-5-5-5-5-|-6-6-6-6-6-6-6-6-|
|-3-3-3-3-3-3-3-3-|-6-6-6-6-6-6-6-6-|-3-3-3-3-3-3-3-3-|-6-6-6-6-6-6-6-6-|
|-----------------|-4-4-4-4-4-4-4-4-|-----------------|-4-4-4-4-4-4-4-4-|

  C                 G                 F#
|-----------------|-----------------|-----------------|-----------------|
|-5-5-5-5-5-5-5-5-|-----------------|-----------------|-----------------|
|-5-5-5-5-5-5-5-5-|-4-4-4-4-4-4-4-4-|-3-3-3-3-3-3-3-3-|-3-3-3-3-3-3-3-3-|
|-5-5-5-5-5-5-5-5-|-5-5-5-5-5-5-5-5-|-4-4-4-4-4-4-4-4-|-4-4-4-4-4-4-4-4-|
|-3-3-3-3-3-3-3-3-|-5-5-5-5-5-5-5-5-|-4-4-4-4-4-4-4-4-|-4-4-4-4-4-4-4-4-|
|-----------------|-3-3-3-3-3-3-3-3-|-2-2-2-2-2-2-2-2-|-2-2-2-2-2-2-2-2-|

  G    F
|----|------|
|----|------|
|----|------|
|-5--|-3----|
|-5--|-3----|
|-3--|-1----|


 Solo (while rhythm guitar plays verse chords)
|---------------------|------------|-----------|-----------------|
|--8------------------|------------|-----------|----------8------|
|-10b12------10b12r10-|-8------8-9-|-----------|------8-9---9-8--| x2
|---------------------|------------|-10--------|-9-10------------|
|---------------------|------------|-----------|-----------------|
|---------------------|------------|-----------|-----------------|

|-------------------|-------------------|-------------------|----------------|
|--8----------8-----|-10---------10-----|-13---------13-----|-15-------15----|
|-10b12------10b12--|-12b14------12b14--|-15b17------15b17--|-17b19----17----|
|-------------------|-------------------|-------------------|----------------|
|-------------------|-------------------|-------------------|----------------|
|-------------------|-------------------|-------------------|----------------|
 Release bends gradually

|---------------------|------------|-----------|-----------------|
|--8------------------|------------|-----------|-----------------|
|-10b12------10b12r10-|-8------8-9-|-----------|-----------------|
|---------------------|------------|-10--------|-----------------|
|---------------------|------------|-----------|-----------------|
|---------------------|------------|-----------|-----------------|


Tablature Legend
----------------
 h   - hammer-on
 p   - pull-off
 b   - bend
 pb  - pre-bend
 r   - bend release (if no number after the r, then release immediately)
 /\  - slide into or out of (from/to "nowhere")
 s   - legato slide
 S   - shift slide
  - natural harmonic
[n]  - artificial harmonic
n(n) - tapped harmonic
 ~   - vibrato
 tr  - trill
 T   - tap
 TP  - trem. picking
 PM  - palm muting
\n/  - tremolo bar dip; n = amount to dip
 \n  - tremolo bar down
 n/  - tremolo bar up
/n\  - tremolo bar inverted dip
 =   - hold bend; also acts as connecting device for hammers/pulls
 <>  - volume swell (louder/softer)
 x   - on rhythm slash represents muted slash
 o   - on rhythm slash represents single note slash

Misc Legend
-----------
 |  - bar
||  - double bar
||o - repeat start
o|| - repeat end
*|  - double bar (ending)
 :  - bar (freetime)
 $  - Segno
 &  - Coda
Tempo markers -  = BPM(8/16=s8/s16), where s8 = swing 8ths, s16 = swing 16ths
Добавлено: 13.02.2016
Другие материалы по этой песне:
  • Аккорды и текст

Страница создана 13.02.2016
http://primanota.ru/wavves/wait-chords.htm
Привет, Гость.
Предлагаем пройти революционный курс по гитаре.
Подарок от PrimaNota.Ru, забирай!