PrimaNota.ru - самый крупный в мире бесплатный архив песенных текстов, аккордов, табулатур и нот


Wavves - Nine Is God - таба, бас-таба, видео

Регистрация Запомнить меня
Войти через:  Facebook Google Twitter Vk Yandex Mail.ru

Wavves - Nine Is God - таба, бас-таба, видео

Печатать
Просмотров: 534
-----------------------------------------------------------------------------
                             Nine is God - Wavves
-----------------------------------------------------------------------------
Tabbed by: Braindead

This song is from the GTA 5 soundtrack where Nathan and Stephen host Vinewood Boulevard
Radio, the station which plays this song.

Tuning: Standard

VERSE

e|-----------------------------------------------------------------------------|
B|-----------------------------------------------------------------------------|
G|-----------------------------------------------------------------------------|
D|--5--5--5--5----6--6--6--6----4--4--4--4-------------------------------------|
A|--6--6--6--6----6--6--6--6----4--4--4--4-------------------------------------|
E|--4--4--4--4----4--4--4--4----2--2--2--2-------------------------------------|

* This is the whole verse. The F#5 chord at the end is played a little longer before
going into the chorus. Listen to the song for the rhythm.


Chorus
*I don't want to tab the same chord for 8 tempo beats so once again listen to the song 
for the rhythm.

e|-----------------------------------------------------------------------------|
B|-----------------------------------------------------------------------------|
G|--1--1--1--1-----------------------------------------------------------------|
D|--2--2--2--2----6--6--6------------------------------------------------------|
A|--2--2--2--2----6--6--6------------------------------------------------------|
E|----------------4--4--4------------------------------------------------------|
                  Holy truth......


VERSE

e|-----------------------------------------------------------------------------|
B|-----------------------------------------------------------------------------|
G|-----------------------------------------------------------------------------|
D|--5--5--5--5----6--6--6--6----4--4--4--4-------------------------------------|
A|--6--6--6--6----6--6--6--6----4--4--4--4-------------------------------------|
E|--4--4--4--4----4--4--4--4----2--2--2--2-------------------------------------|
    A bullet in my head....


e|-----------------------------------------------------------------------------|
B|-----------------------------------------------------------------------------|
G|--1--1--1--1---------------------------1--1--1--1-----------------------1----|
D|--2--2--2--2----6--6--6----------------2--2--2--2---6--6--6--7--7--7----2----|
A|--2--2--2--2----6--6--6----------------2--2--2--2---6--4--6--7--7--7----2----|
E|----------------4--4--4-----------------------------4--4--4--5--5--5---------|
                  Holy youth......              9 to Breath inside your lungs
                  Holy truth......

e|------------------------------------------------------------------------------------|
B|------------------------------------------------------------------------------------|
G|--1--1--1--1------------------------1--1--1-----------------------------------------|
D|--2--2--2--2----7--7--7--6--6--6----2--2--2--7--7--6--6-----------------------------|
A|--2--2--2--2----7--7--7--6--6--6----2--2--2--7--7--6--6-----------------------------|
E|----------------5--5--5--4--4--4-------------5--5--4--4-----------------------------|
                                     Your lungs....

*That's it. A very simple song, but really catchy.





************************************

| /   slide up
| \   slide down
| h   hammer-on
| p   pull-off
| ~   vibrato
| +   harmonic
| x   Mute note
| b   Bend
| pb  Pre-bend
| br  Bend release
| pbr Pre-bend release
| brb Bend release bend

************************************
Добавлено: 29.09.2013
Другие материалы по этой песне:
  • Аккорды и текст

Страница создана 29.09.2013
http://primanota.ru/wavves/nine-is-god-chords.htm
Привет, Гость.
Предлагаем пройти революционный курс по гитаре.
Подарок от PrimaNota.Ru, забирай!