PrimaNota.ru - самый крупный в мире бесплатный архив песенных текстов, аккордов, табулатур и нот


Washya - The Last Dragon - таба, видео

Регистрация Запомнить меня
Войти через:  Facebook Google Twitter Vk Yandex Mail.ru

Washya - The Last Dragon - таба, видео

Печатать
Просмотров: 55
-----------------------------------------------------------------------------
           The Last Dragon - Washya
-----------------------------------------------------------------------------
Tuning: Standard (EBGDAE)
Intro
E|-----------------------------------------------------------|
B|-----------------------------------------------------------|
G|-----------------------------------------------------------|
D|------5\44-4\333-----------5\44-4\333----------------------|
A|-xx-x-3\22-2\111-xx-x-xx-x-3\22-2\111-xx-x-xx-x-5\44\333-2-|
E|-xx-x------------xx-x-xx-x------------xx-x-xx-x-3\22\111-0-|x2

Verses
E|---------------------------------2-----------------------------------|
B|-----------------------------3-------------1-------------------------|
G|-------3-------------------2---2------2------------5--------2--------|
D|---4--------------------2-----------2---2------5--------2------------|
A|-2---2-----4---2----2------------------------3---3----0---0---222-3--|
E|---------2---2----0---0---------------------------------------000-1--|

Main Riff
E|----------------------------------------------------------|
B|----------------------------------------------------------|
G|----------------------------------------------------------|
D|----5---7/8\7-5---5---3/5---------101010\9-9--------------|
A|----3---5/6\5-3---3---1/3-xx-555-/8-8-8-\7-7-777/88/9-3/5-|
E|-00---0---------0---0-----xx-333-------------555/66/7-1/3-|


Solo
E|------15-------------12-15-------------12-15-------------12-13-15-17~-|
B|-/12~----13-12-13-15-------13-12-13-15-------13-12-13-15--------------|
G|----------------------------------------------------------------------|
D|----------------------------------------------------------------------|
A|----------------------------------------------------------------------|
E|----------------------------------------------------------------------|

E|-17-17-17-17-17p14h17-17-17-17-17-17p14----------------------------------|
B|----------------------------------------16p14p13-------------------------|
G|-------------------------------------------------14h15p14p12-------------|
D|-------------------------------------------------------------14h15p14p12-|
A|-------------------------------------------------------------------------|
E|-------------------------------------------------------------------------|

E|----------------------------------------------|
B|----------------------------------------------|
G|----------------------------------------------|
D|----------------------------------------------|
A|-15p14p12h14p12h14p12-----------10p9----------|
E|----------------------14p12h14~------8h10~\5~-|

E|------------------------------------------------------------------|
B|------------------------------------------------------------------|
G|------------------------------------------------------------------|
D|--------------------------------------------------8-10-11-8-10-11-|
A|--------------6-7-9-6-7-9-------------6-7-9-6-7-8-----------------|
E|-/5-7-8-5-7-8-------------6-7-9-6-7-9-----------------------------|

E|-----------------------------------------------------12-14-15-12-14-15-|
B|-----------------------------------11-13-14-11-13-14-------------------|
G|-----------------10-12-13-10-12-13-------------------------------------|
D|-9-11-12-9-11-12-------------------------------------------------------|
A|-----------------------------------------------------------------------|
E|-----------------------------------------------------------------------|

E|-17-17-17-17-17-17p14h17-17-17-17-17-17-17-17p14h16-16-16-16-16-16p14-----|
B|----------------------------------------------------------------------15~-|
G|--------------------------------------------------------------------------|
D|--------------------------------------------------------------------------|
A|--------------------------------------------------------------------------|
E|--------------------------------------------------------------------------|

Intro
E|-----------------------------------------------------------|
B|-----------------------------------------------------------|
G|-----------------------------------------------------------|
D|------5\44-4\333-----------5\44-4\333----------------------|
A|-xx-x-3\22-2\111-xx-x-xx-x-3\22-2\111-xx-x-xx-x-5\44\333-2-|
E|-xx-x------------xx-x-xx-x------------xx-x-xx-x-3\22\111-0-|
Добавлено: 06.07.2013
Другие материалы по этой песне:
  • Аккорды и текст

Страница создана 06.07.2013
http://primanota.ru/washya/the-last-dragon-chords.htm
Привет, Гость.
Предлагаем пройти революционный курс по гитаре.
Подарок от PrimaNota.Ru, забирай!