PrimaNota.ru - самый крупный в мире бесплатный архив песенных текстов, аккордов, табулатур и нот


Washya - The Peacemaker - таба

Регистрация Запомнить меня
Войти через:  Facebook Google Twitter Vk Yandex Mail.ru

Washya - The Peacemaker - таба

Печатать
Просмотров: 54
-----------------------------------------------------------------------------
               The Peacemaker - Washya 
-----------------------------------------------------------------------------
Tuning: Drop C (DAFCGC)
Intro
D|-------------------------------------|
A|-------------------------------------|
F|-5h77-7-5h77-7-5h77-7-7h8h10p8p7p5h7-|
C|-------------------------------------|
G|-------------------------------------|
C|-------------------------------------|x3

Intro 2 
D|---------------------------------------|
A|---------------------------------------|
F|-7/99-9-7/99-9-7/99-9-9/10-12\10-9\7/9-|
C|---------------------------------------|
G|-5/77-7-5/77-7-5/77-7-7/8--10\8--7\5/7-|
C|---------------------------------------|

Verses
D|---------------------------------------------------------8-5---5-|
A|-----------------------------------------------9---------8---6-6-|
F|-----------------------------------10-------10---10----8-------5-|
C|-----5-7---------------7-5-------8----8---8---------10-----------|
G|---5-----7-----7-5---5-----5---5--------8------------------------|
C|-5---------7-7-----5---------5-----------------------------------|

Chorus
D|-----------------------------------------------------------------------|
A|-----------------------------------------------------------------------|
F|-----------------------------------------------------------------------|
C|-----------------5---------------7-------------------------------7-----|
G|-----3---5---6-------6---5---3/9---9-8-7\5-----------5---7---8-------8-|
C|-000---0---0---0---0---0---0---------------7-8-5-000---0---0---0---0---|
PM ***   *   *   *   *   *   *                     ***   *   *   *   *

D|-------------------------------------------|
A|-------------------------------------------|
F|-------------------------------------------|
C|-----------6-------------------777\555/9\\-|
G|---7---5/8---8-7-6-------------555\333/7\\-|
C|-0---0-------------8-7-5-3-000-------------|
PM *   *                     *** 
Добавлено: 01.12.2013
Другие материалы по этой песне:
  • Аккорды и текст

Страница создана 01.12.2013
http://primanota.ru/washya/the-peacemaker-chords.htm
Привет, Гость.
Предлагаем пройти революционный курс по гитаре.
Подарок от PrimaNota.Ru, забирай!