PrimaNota.ru - самый крупный в мире бесплатный архив песенных текстов, аккордов, табулатур и нот


Washya - The Price Is Right - таба, видео

Регистрация Запомнить меня
Войти через:  Facebook Google Twitter Vk Yandex Mail.ru

Washya - The Price Is Right - таба, видео

Печатать
Просмотров: 42
-------------------------------------------------------------------------------
                       The Price Is Right - Washya
-------------------------------------------------------------------------------
Tuning: Standard (EBGDAE)
Intro
E|--------------------------------------------|
B|--------------------------------------------|
G|--------------------------------------------|
D|-7777-5-7-9---------7777-5-7-9--------------|
A|-5555-3-5-7-7777-55-5555-3-5-7--777-5-8-7-5-|
E|------------5555-33-------------555-3-6-5-3-|

Verses
E|-----------------------------------|
B|-----------------------------------|
G|-----------------------------------|
D|-7777777/9\5555555-----------------|
A|-5555555/7\3333333-2-33333333-55-8-|
E|-------------------0-11111111-33-6-|
PM ***************** * ******** ** *  

Chorus
E|-------------------------------------------------------------------|
B|-------------------------------------------------------------------|
G|-------------------------------------------------------------------|
D|-5555----777-55-------------------888\7-----101010\9---------------|
A|-3333-55-555-33-333333-55-777-----666\5-----8-8-8-\7-----5555-77-8-|
E|------33--------111111-33-555-0h3-------0h3----------0h3-3333-55-6-|
PM                              ***       ***  

Guitar Solo (play EXTREMELY FAST)

E|-22p20----20h22p20----20h22p20----19h21p19----19h21p19----19h21p19----|
B|-------21----------21----------21----------20----------20----------20-|
G|----------------------------------------------------------------------|
D|----------------------------------------------------------------------|
A|----------------------------------------------------------------------|
E|----------------------------------------------------------------------|

E|-18h20p18----18h20p18----18h20p18----17h19p17----17h19p17----17h19p17----|
B|----------19----------19----------19----------18----------18----------18-|
G|-------------------------------------------------------------------------|
D|-------------------------------------------------------------------------|
A|-------------------------------------------------------------------------|
E|-------------------------------------------------------------------------|

E|-16h18p16----16h18p16----16h18p16----15h17p15----15h17p15----15h17p15----|
B|----------17----------17----------17----------16----------16----------16-|
G|-------------------------------------------------------------------------|
D|-------------------------------------------------------------------------|
A|-------------------------------------------------------------------------|
E|-------------------------------------------------------------------------|

E|-14h16p14----14h16p14----14h16p14----13h15p13----13h15p13----13h15p13----|
B|----------15----------15----------15----------14----------14----------14-|
G|-------------------------------------------------------------------------|
D|-------------------------------------------------------------------------|
A|-------------------------------------------------------------------------|
E|-------------------------------------------------------------------------|

E|-12h14p12----12h14p12----12h14p12----12h14p12-------13-------13-------13-|
B|----------13----------13----------13----------12h14----12h14----12h14----|
G|-------------------------------------------------------------------------|
D|-------------------------------------------------------------------------|
A|-------------------------------------------------------------------------|
E|-------------------------------------------------------------------------|

E|-------15-------15-------15-------17-------17-------17-------19-------19-|
B|-14h16----14h16----14h16----16h18----16h18----16h18----18h20----18h20----|
G|-------------------------------------------------------------------------|
D|-------------------------------------------------------------------------|
A|-------------------------------------------------------------------------|
E|-------------------------------------------------------------------------|

E|-------19p18-------20p19-------19p18-------20p19-------19p18-------20-|
B|-18h20-------19h21-------18h20-------19h21-------18h20-------19h21----|
G|----------------------------------------------------------------------|
D|----------------------------------------------------------------------|
A|----------------------------------------------------------------------|
E|----------------------------------------------------------------------|

E|-------20-------20-------20-------20-------20-------21-------21b-21b-21~-|
B|-19h21----19h21----19h21----19h21----19h21----20h22----20h22-------------|
G|-------------------------------------------------------------------------|
D|-------------------------------------------------------------------------|
A|-------------------------------------------------------------------------|
E|-------------------------------------------------------------------------|
Добавлено: 28.07.2013
Другие материалы по этой песне:
  • Аккорды и текст

Страница создана 28.07.2013
http://primanota.ru/washya/the-price-is-right-chords.htm
Привет, Гость.
Предлагаем пройти революционный курс по гитаре.
Подарок от PrimaNota.Ru, забирай!