PrimaNota.ru - самый крупный в мире бесплатный архив песенных текстов, аккордов, табулатур и нот


Washya - Terminal Drag - таба

Регистрация Запомнить меня
Войти через:  Facebook Google Twitter Vk Yandex Mail.ru

Washya - Terminal Drag - таба

Печатать
Просмотров: 54
-------------------------------------------------------------------------------
                       Terminal Drag - Washya
-------------------------------------------------------------------------------
Tuning: Drop D (EBGDAD)
Intro
E|----------------------------|
B|----------------------------|
G|----------------------------|
D|----------------------------|
A|----------------------------|
D|-6-5-3--3-2-1--6-5-3--3-2-1-|x3
PM * * *  * * *  * * *  * * *  

Part 2
E|----------------------------|
B|----------------------------|
G|----------------------------|
D|----------------------------|
A|-6-5-3--3-2-1--6-5-3--3-2-1-|
D|-6-5-3--3-2-1--6-5-3--3-2-1-|x2

Part 3
E|------------------------------------------------------|
B|------------------------------------------------------|
G|------------------------------------------------------|
D|------------------------------------------------------|
A|-1-1--5/6-00--00-5/6-00-1-0-1-00-6\5-00-1-1-00-6-3----|
D|-1-1--5/6-00--00-5/6-00-1-0-1-00-6\5-00-1-1-00-6-3-3*-|

Part 3
E|------------------------------------------------|
B|------------------------------------------------|
G|------------------------------------------------|
D|-8-7--8-7--8-7--8-7---5-------7-8-7-8\7---------|
A|-6-5--6-5--6-5--6-5-7---7-6-5---6-5-----8\7-8\7-|
D|----------------------------------------8\7-----|

Chorus
E|-------------------------------------------------------------|
B|-------------------------------------------------------------|
G|-------------------------------------------------------------|
D|-------------------------------------------------------------|
A|-3-5-0-0-6-5-0-3-0-3-5-6-0-6\5-0-3-0-0-3-5-0-6-5-3-0-1-3-1-0-|
D|-3-5-0-0-6-5-0-3-0-3-5-6-0-6\5-0-3-0-0-3-5-0-6-5-3-0-1-3-1-0-|

Solo
E|----------12h15p12-------------14h17p14--------------------------------|
B|-------13----------13-------15----------15-----------------------------|
G|-12h14----------------14h16----------------16p14-----------------------|
D|-------------------------------------------------15--------------------|
A|----------------------------------------------------16p14p12-----------|
D|-------------------------------------------------------------14p12h14~-|

E|-------------------------------------------------------------------------|
B|-------------------------------------------------------------------------|
G|-12h14----12h14----------------------------------------------------------|
D|-------15-------15p13p12----13p12----------------------------------------|
A|-------------------------14-------15p14h15p14h15p14----------15p12-------|
D|----------------------------------------------------16p14p13-------14p12-|

E|-------------------------------------------------------------14p13p11-----|
B|----------------------------------------------11p10-------12----------12~-|
G|-------------------------------------------12-------12h13-----------------|
D|-------------------------12h10-------13p11--------------------------------|
A|-------13p12----12h13h14-------12h14--------------------------------------|
D|-12h14-------14-----------------------------------------------------------|
Добавлено: 01.10.2013
Другие материалы по этой песне:
  • Аккорды и текст

Страница создана 01.10.2013
http://primanota.ru/washya/terminal-drag-chords.htm
Привет, Гость.
Предлагаем пройти революционный курс по гитаре.
Подарок от PrimaNota.Ru, забирай!