PrimaNota.ru - самый крупный в мире бесплатный архив песенных текстов, аккордов, табулатур и нот


Washya - The Flooding - таба, видео

Регистрация Запомнить меня
Войти через:  Facebook Google Twitter Vk Yandex Mail.ru

Washya - The Flooding - таба, видео

Печатать
Просмотров: 65
Уроки эстрадного вокала в Санкт-Петербурге
-----------------------------------------------------------------------------
    The Flooding - Washya
-----------------------------------------------------------------------------
Tuning: Standard (EBGDAE)
Intro/Verses
E|---------------------------------------------------------------------|
B|---------------------------------------------------------------------|
G|---------------------------------------------------------------------|
D|-----7---7---7-----------7-6-7---7---4-7-------7-----------7-----5-5-|
A|---6---6-------6---6---6-----------6---------6---6-4-----6-----4---4-|
E|-4---------4-----4---4---------4---------6-4---------5-4-----2-----2-|

Chorus
E|-------------------------------------------------------------|
B|-------------------------------------------------------------|
G|-777777-5-555555-7---7-------7-777777-5---5-------5-555555---|
D|-666666-4-444444-6-----6---6---666666-4-----4---4---444444---|
A|-444444-2-222222-4-4-----4-----444444-2-2-----2-----222222-2-|
E|-----------------------------------------------------------0-|

Before Solo
E|-----------------------------0~-|
B|---------1p0-----------------0~-|
G|-----7-----------5p4-----7---7~-|
D|---6---6-------4-------6---6-6~-|
A|-4-----------2-------4-------4~-|
E|-----------------------------0~-|x2

Guitar Solo
E|-------------------------------------------------------------------------|
B|------------------5*/9b*~~-----------------------------------------------|
G|----------7-4h5h7--------------7-6h7/9/11-11b-11b-10p8~~-----9---6h7/10~-|
D|--------6--------------------6-----------------------------8---8---------|
A|------4--------------------4-----------------------------6---------------|
E|-\\xx--------------------------------------------------------------------|

E|----------------------------------------------------------------|
B|----------------------------------9-9bp8~-----------------------|
G|-12h13p12h13p12-10~-----10-7h9h10---------------13-12h13/15/17*-|
D|----------------------9----------------------12-----------------|
A|--------------------7---------------------10--------------------|
E|----------------------------------------------------------------|

E|-----12-----12-----12-12~-------12h15b~-------12h15-1515p12---------|
B|-----12-----12-----12-----12h13---------12h13---------------1515p13-|
G|-13b----13b----13b--------------------------------------------------|
D|--------------------------------------------------------------------|
A|--------------------------------------------------------------------|
E|--------------------------------------------------------------------|

E|-----------------------------------------------------------|
B|-----------------------------------------------------------|
G|-1515p14---------------------------------------------------|
D|---------1414p12-1414p12-----------------------------------|
A|-------------------------1212p10-1212p10-------------------|
E|-----------------------------------------1111p9-1111p9\5*~-|

E|---------------------------------------------------------|
B|---------------------------------------------------------|
G|---------------9---------------9---------------9---------|
D|-//xx-11-11---------9-11-11---------9-11-11---------13b~-|
A|------------11---11---------11---11---------11---11------|
E|---------------------------------------------------------|

E|--------------------------------------------------------3h4h6-------3h4h6-|
B|----------------------------------------------------3-5---------3-5-------|
G|-13b-1313p12p11h12p11p9h11p9p7h9p7p6h7p6p4h6p4-4*-4-----------4-----------|
D|--------------------------------------------------------------------------|
A|--------------------------------------------------------------------------|
E|--------------------------------------------------------------------------|

E|-------3h4h6-6b~-8b-x/x/x/x-|
B|---3-5-------6b~-8b---------|
G|-4--------------------------|
D|----------------------------|
A|----------------------------|
E|----------------------------|

Ending  (Fade Out
E|------------------------------------------------|
B|------------------------------------------------|
G|------------------------------------------------|
D|------------------------------------------------|
A|-7-777-875-5-555-653-22-222-7-777-875-5-555-653-|
E|-5-555-653-3-333-431-00-000-5-555-653-3-333-431-|
PM   ***       ***     ** ***   ***       ***  
Добавлено: 06.07.2013
Другие материалы по этой песне:
  • Аккорды и текст

Страница создана 06.07.2013
http://primanota.ru/washya/the-flooding-chords.htm
Привет, Гость.
Предлагаем пройти революционный курс по гитаре.
Подарок от PrimaNota.Ru, забирай!