PrimaNota.ru - самый крупный в мире бесплатный архив песенных текстов, аккордов, табулатур и нот


Washya - The Future Is Dead - таба, видео

Регистрация Запомнить меня
Войти через:  Facebook Google Twitter Vk Yandex Mail.ru

Washya - The Future Is Dead - таба, видео

Печатать
Просмотров: 48
-----------------------------------------------------------------------------
                   The Future Is Dead - Washya
-----------------------------------------------------------------------------
Tuning: Drop C (DAFCGC)
Intro
D|-------------------------------------------|
A|-------------------------------------------|
F|-------------------------------------------|
C|-------------------------5h6p5---5---------|
G|-----6p5h6-----5p3h5-----------6---6p5-----|
C|-000-------000-------000---------------5~~-|
PM ***       ***       *** 

Intro 2 
D|--------------------------------------------------------------|
A|--------------------------------------------------------------|
F|--------------------------------------------------------------|
C|-----8\7/8-----7\5/7-----/5h6p5---5-------------------3-------|
G|-000-6\5/6-000-5\3/5-000--------6---6p5-----0-0-3h5h6---5h6~~-|
C|-000-------000-------000----------------5~~-0-0---------------|
PM ***       ***       ***                    * * 

Verses
D|------------------------------------------------------|
A|------------------------------------------------------|
F|------------------------------------------------------|
C|----------------------------------------------6p4h7~~-|
G|----------------------------------------4h6h7---------|
C|-2-222-3*-2-222-3*-2-222-3*-2-222-2h4h5---------------|
PM * ***    * ***    * ***    * *** 

D|-----------------------------------------|
A|-----------------------------------------|
F|-----------------------------------------|
C|-----------------------------------------|
G|----------------------------------2---3*-|
C|-0-000-2*-0-000-2*-0-000-2*-0h2h3---3----|
PM * ***    * ***    * ***    

D|----------------------------------|
A|----------------------------------|
F|----------------------------------|
C|--------777\55/9\\---------3------|
G|--------555\33/7\\---3h5h6---5h6~-|
C|-//xx\\------------0--------------|

Chorus
D|-----------------------------------------------------------------------|
A|-----------------------------------------------------------------------|
F|-----6h7p6---6---------------------------------------3h5p3---3---------|
C|-----------7---7p6p4---4-------------------3---------------5---6-------|
G|---------------------6---6p5---------3h5h6---5h6-----------------5-3-0-|
C|-000-------------------------5~~-000-------------000---------------3-0-|
PM ***                             ***             *** 
Добавлено: 22.11.2013
Другие материалы по этой песне:
  • Аккорды и текст

Страница создана 22.11.2013
http://primanota.ru/washya/the-future-is-dead-chords.htm
Привет, Гость.
Предлагаем пройти революционный курс по гитаре.
Подарок от PrimaNota.Ru, забирай!