PrimaNota.ru - самый крупный в мире бесплатный архив песенных текстов, аккордов, табулатур и нот


Washya - Open Sea - таба, видео

Регистрация Запомнить меня
Войти через:  Facebook Google Twitter Vk Yandex Mail.ru

Washya - Open Sea - таба, видео

Печатать
Просмотров: 82
-----------------------------------------------------------------------------
              Open Sea - Washya
-----------------------------------------------------------------------------
Tuning: Standard (EBGDAE)
Intro
E|-2---2---2---2---2---2-------------------2-|
B|---3---3---3---3---2---2-3---3---3---3---3-|
G|---------------------------2---2---2---2-2-|
D|-----------------------------------------0-|
A|-----------------------------------------0-|
E|-----------------------------------------0-|

Verses
E|---------------2-----3---------------------------------------|
B|-----3---3---3-----3-----------------------------------------|
G|---2---2---2-----2---------1-------1-------1---------1-------|
D|-----------------------------2-------2-------2-----2-------2-|
A|-------------------------2-------2-------2-------2-------2---|
E|-0---------------------0-------0-------0-------0-------0-----|

Chorus
E|------2222-3333-----3----0000-3333-5555-------5---1111-------3-------0-|
B|------3333-3333-------3--1111-3333-5555---------5-1111-------3-------0-|
G|-1111-2222-0000----------0000-4444-6666---6-------2222-------4-------2-|
D|-2222------0000----------2222-5555-7777-7---7-----3333-------5-------2-|
A|-2222------2222-2--------3333-5555-7777-----------3333-------5-------0-|
E|-0000------3333---3------0000--------------------------0-2-3-3-0-2-3-0-|
PM                                                       * * *   * * *  
Добавлено: 02.08.2013
Другие материалы по этой песне:
  • Аккорды и текст

Страница создана 02.08.2013
http://primanota.ru/washya/open-sea-chords.htm
Привет, Гость.
Предлагаем пройти революционный курс по гитаре.
Подарок от PrimaNota.Ru, забирай!