PrimaNota.ru - самый крупный в мире бесплатный архив песенных текстов, аккордов, табулатур и нот


Washya - Overdose - таба, видео

Регистрация Запомнить меня
Войти через:  Facebook Google Twitter Vk Yandex Mail.ru

Washya - Overdose - таба, видео

Печатать
Просмотров: 60
-----------------------------------------------------------------------------
                                Overdose - Washya
-----------------------------------------------------------------------------
Tuning: D Standard (DAFCGD)
Intro/Verses
D|-------------------------------------------------------5-|
A|---------------------------------5---------------------5-|
F|-------6-------6---------------6---6---------6---------6-|
C|-----7---7---7---7---7-------7-------7-----7---------5-7-|
G|---5---------------5---5---5-------------5---------7---5-|
D|-0---------0-------------0-------------0-------0-5-----0-|
PM *         *             *             *       * *   

Chorus
D|-5-5-5-5--3-3-------1-1-1-1--4-4-------2-2-2-2--3-3---------0-|
A|-5-5-5-5--3-3-------1-1-1-1--4-4-------2-2-2-2--3-3---------0-|
F|-6-6-6-6--4-4-4h5p4p2-2-2-2--5-5-5h6p5p3-3-3-3--0-0-0p3p2p0-0-|
C|-7-7-7-7--5-5-------3-3-3-3--6-6-------4-4-4-4--2-2---------2-|
G|-5-5-5-5--3-3-------1-1-1-1--4-4-------2-2-2-2--2-2---------2-|
D|-0-0-0-0--0-0-------0-0-0-0--0-0-------0-0-0-0--0-0---------0-|

Guitar Solo
D|----------------------------------------------------------11h14----|
A|------------------------------------------------------/12-------12-|
F|-----------5--------------------------3----------------------------|
C|---5h7p5-----7p5-5h7p5p4h5~---3h5p3-----5p3-3h5p3p2h3~-------------|
G|-7-------7------------------5-------5------------------------------|
D|-------------------------------------------------------------------|

D|-11h14/16bp14~----11h14----11h14p11----11~-11b-11h13h14-13h14h16-16----|
A|---------------12-------12----------12-----12b----------------------15-|
F|-----------------------------------------------------------------------|
C|-----------------------------------------------------------------------|
G|-----------------------------------------------------------------------|
D|-----------------------------------------------------------------------|

D|-16-16p15p13-15-15p14p12-13-13p12p10-10h13p10----10h13p10----10h13-------|
A|----------------------------------------------13----------13-------13p12-|
F|-------------------------------------------------------------------------|
C|-------------------------------------------------------------------------|
G|-------------------------------------------------------------------------|
D|-------------------------------------------------------------------------|

D|----------10----------------10----------------10h13~-10h13p10h----|
A|-10h12h13----13p12p10h12h13----13p12p10h12h13------------------13-|
F|------------------------------------------------------------------|
C|------------------------------------------------------------------|
G|------------------------------------------------------------------|
D|------------------------------------------------------------------|

D|-10h13p10----10h13p10----10h13p10----10h13p10----10h13p10h13p10-12b-|
A|----------13----------12----------13----------12----------------13b-|
F|--------------------------------------------------------------------|
C|--------------------------------------------------------------------|
G|--------------------------------------------------------------------|
D|--------------------------------------------------------------------|
Добавлено: 12.07.2013
Другие материалы по этой песне:
  • Аккорды и текст

Страница создана 12.07.2013
http://primanota.ru/washya/overdose-chords.htm
Привет, Гость.
Предлагаем пройти революционный курс по гитаре.
Подарок от PrimaNota.Ru, забирай!