PrimaNota.ru - самый крупный в мире бесплатный архив песенных текстов, аккордов, табулатур и нот


Washya - Overcame Illness - таба, видео

Регистрация Запомнить меня
Войти через:  Facebook Google Twitter Vk Yandex Mail.ru

Washya - Overcame Illness - таба, видео

Печатать
Просмотров: 67
Уроки эстрадного вокала в Санкт-Петербурге
-----------------------------------------------------------------------------
                        Overcame Illness - Washya
-----------------------------------------------------------------------------
Tuning: Standard (ebgDAE)
Intro
E|---------------------------------------------------|
B|---------------------------------------------------|
G|---------------------------------------------------|
D|-----3---5-3----------3---5-3---3------3---5-3-----|
A|-3-5---5-----5-3--3-5---5-----5----3-5---5-3-1-3-2-|
E|-----------------------------------------------1-0-|

Verses
E|----------------------------------------------------|
B|----------------------------------------------------|
G|--------------------3---5---------------2-3---------|
D|-------2-0----0-3-5-3-5-5---------------2-3-5-3-----|
A|-0-2-3-----2--0-3-5---5----0-2-3-2-0--------5-3-5-3-|
E|-------------------------------------3----------3-1-|


Chorus
E|--------------------------------------------------------------|
B|--------------------------------------------------------------|
G|-----3---------------6-5--------------------------------------|
D|-3-5-3-5-4-3-------7-6-5-7-5-3-------777-555-999-----5-4------|
A|-3-5---5-4-3-555-7-7-----7-5-3-333-5-555-333-777-----5-4--6\4-|
E|-------------333-5-------------111-3-------------5-7------4\2-|
PM                                                 * * 

Solo (fast play)
E|---------12h15p12----12h15p12----12h15p12----12h15p12----------------|
B|-/12b~~~----------13----------13----------13----------13-13h16p13----|
G|------------------------------------------------------------------14-|
D|---------------------------------------------------------------------|
A|---------------------------------------------------------------------|
E|---------------------------------------------------------------------|

E|----------------------------------------------------------------|
B|----13h16p13----13h16p13----------------------------------------|
G|-14----------14----------14-14h17p14----14h17p14----14h17p14----|
D|-------------------------------------15----------15----------15-|
A|----------------------------------------------------------------|
E|----------------------------------------------------------------|

E|-------------------------------------------------------------------------|
B|-------------------------------------------------------------------------|
G|----14h17p14-------------------------------------------------------------|
D|-15----------15-15h18p15----15h18p15h18p15h18p15h18p15-------------------|
A|-------------------------16----------------------------16p15p13----12----|
E|----------------------------------------------------------------14----13-|

Chorus
E|--------------------------------------------------------------|
B|--------------------------------------------------------------|
G|-----3---------------6-5--------------------------------------|
D|-3-5-3-5-4-3-------7-6-5-7-5-3-------777-555-999-----5-4------|
A|-3-5---5-4-3-555-7-7-----7-5-3-333-5-555-333-777-----5-4--6\4-|
E|-------------333-5-------------111-3-------------5-7------4\2-|
PM                                                 * * 
Добавлено: 22.11.2013
Другие материалы по этой песне:
  • Аккорды и текст

Страница создана 22.11.2013
http://primanota.ru/washya/overcame-illness-chords.htm
Привет, Гость.
Предлагаем пройти революционный курс по гитаре.
Подарок от PrimaNota.Ru, забирай!