PrimaNota.ru - самый крупный в мире бесплатный архив песенных текстов, аккордов, табулатур и нот


Washya - Open Casket - таба, видео

Регистрация Запомнить меня
Войти через:  Facebook Google Twitter Vk Yandex Mail.ru

Washya - Open Casket - таба, видео

Печатать
Просмотров: 52
-----------------------------------------------------------------------------
                Open Casket - Washya
-----------------------------------------------------------------------------
Tuning: Drop C (DAFCGC)
Intro
D|-------------------------------------------------|
A|-------------------------------------------------|
F|-------------------------------------------------|
C|--------------------777-5------------------------|
G|-8-77-8-77-8-77-8-7-555-3-8-77-8-77-8-77-8-7-5-3-|
C|-8-77-8-77-8-77-8-7-------8-77-8-77-8-77-8-7-5-3-|

Verses
D|-----------------------------------------------------------|--------|
A|-----------------------------------------------------------|--------|
F|-----------------------------------------------------------|--------|
C|-----------------------------------------------------555-3-|--------|
G|-00-00-00-00-0-0000-00000-00-00-00000-00-00-00000-00-333-1-|-555443-|
C|-00-00-00-00-0-0000-00000-00-00-00000-00-00-00000-00-------|-555443-|
PM ** ** ** ** * **** ***** ** ** ***** ** ** ***** **       <2nd time>

Chorus
D|--------------------------------------------------------------|
A|--------------------------------------------------------------|
F|--------------------------------------------------------------|
C|-------------------77-77-7777----------5\4/55-----------------|
G|-88888888\55555555-55-55-5555-33333333-3\2/33-11111111-000000-|
C|-88888888\55555555------------33333333--------11111111-000000-|

Guitar Solo
D|---------12h15p12----12h15p12----------------12----------------------|
A|-12---------------15----------15p12----12h15----15p12----12----------|
F|-12b-13~----------------------------14----------------14----15p14p12-|
C|---------------------------------------------------------------------|
G|---------------------------------------------------------------------|
C|---------------------------------------------------------------------|

D|--------------------------------------------------------------------|
A|--------------------------------------------------------------------|
F|-----12p11----12p11----12p11----------------------------------------|
C|--14-------14-------14-------14p12p11-------13----------------------|
G|--------------------------------------14h15----15p13p12----12-------|
C|--------------------------------------------------------14----14p12-|

D|----------------------------------------------------------------|
A|---------------------5t12p9p5t12p9p5----------------------8p7---|
F|-/5~-5t12p9p5t12p9p5-----------------/7t14p11p7t14p11p7-7-----9-|
C|----------------------------------------------------------------|
G|----------------------------------------------------------------|
C|----------------------------------------------------------------|

D|---------------------------------------------------------------------|
A|---------------------------------------------------------------------|
F|-7---9-7---8-7-------------------------------------------------------|
C|---9-----9-----9-7------8p7h10p8-----4-----6p5-----------------------|
G|-------------------9-10----------7p5---5h7-----7-----4-5-----7-------|
C|-------------------------------------------------7-5-----4-5---5-4-0-|

D|-------------------------------------------------|
A|-------------------------------------------------|
F|-------------------------------------------------|
C|--------------------777-5------------------------|
G|-8-77-8-77-8-77-8-7-555-3-8-77-8-77-8-77-8-7-5-3-|
C|-8-77-8-77-8-77-8-7-------8-77-8-77-8-77-8-7-5-3-|

Verses
D|-----------------------------------------------------------|--------|
A|-----------------------------------------------------------|--------|
F|-----------------------------------------------------------|--------|
C|-----------------------------------------------------555-3-|--------|
G|-00-00-00-00-0-0000-00000-00-00-00000-00-00-00000-00-333-1-|-555443-|
C|-00-00-00-00-0-0000-00000-00-00-00000-00-00-00000-00-------|-555443-|
PM ** ** ** ** * **** ***** ** ** ***** ** ** ***** **       <2nd time>

Chorus
D|--------------------------------------------------------------|
A|--------------------------------------------------------------|
F|--------------------------------------------------------------|
C|-------------------77-77-7777----------5\4/55-----------------|
G|-88888888\55555555-55-55-5555-33333333-3\2/33-11111111-000000-|
C|-88888888\55555555------------33333333--------11111111-000000-|
Добавлено: 29.10.2013
Другие материалы по этой песне:
  • Аккорды и текст

Страница создана 29.10.2013
http://primanota.ru/washya/open-casket-chords.htm
Привет, Гость.
Предлагаем пройти революционный курс по гитаре.
Подарок от PrimaNota.Ru, забирай!