PrimaNota.ru - самый крупный в мире бесплатный архив песенных текстов, аккордов, табулатур и нот


Washya - Kings Men - таба, видео

Регистрация Запомнить меня
Войти через:  Facebook Google Twitter Vk Yandex Mail.ru

Washya - Kings Men - таба, видео

Печатать
Просмотров: 83
-----------------------------------------------------------------------------
                       Kings Men - Washya
-----------------------------------------------------------------------------
Tuning: Standard (EBGDAE)
Intro
E|-------------------|
B|-------------------|
G|-------------------|
D|-7777\666----------|
A|-5555\444-33333/55-|
E|----------11111/33-|x2

Verses
E|----------------------------|
B|----------------------------|
G|----------------------------|
D|--------------------4\3-----|
A|-33-22-33--33-22-33-2\1-3-2-|
E|-11-00-11--11-00-11-----1-0-|

Chorus
E|---------------------------------------------------------|
B|---------------------------------------------------------|
G|---------------------------------------------------------|
D|------------------8\7\5----8\7\5----------6\5\3----------|
A|-55555555/8888888-6\5\3-55-6\5\3-33-77/88-4\3\1-33-22-33-|
E|-33333333/6666666-------33-------11-55/66-------11-00-11-|
Добавлено: 23.09.2013
Другие материалы по этой песне:
  • Аккорды и текст

Страница создана 23.09.2013
http://primanota.ru/washya/kings-men-chords.htm
Привет, Гость.
Предлагаем пройти революционный курс по гитаре.
Подарок от PrimaNota.Ru, забирай!