PrimaNota.ru - самый крупный в мире бесплатный архив песенных текстов, аккордов, табулатур и нот


Washya - Kryss - таба

Регистрация Запомнить меня
Войти через:  Facebook Google Twitter Vk Yandex Mail.ru

Washya - Kryss - таба

Печатать
Просмотров: 54
-----------------------------------------------------------------------------
                   Kryss - Washya
-----------------------------------------------------------------------------
Tuning: Standard (EBGDAE)
Intro
E|-----------------------------------------0---------------0---------2-|
B|-------3----------------3------------3-----------1---3-----------3-2-|
G|---------------2----------------2--2---2-----2-----2---2-----------3-|
D|---4----------------4----------------------2---2-------------4-----4-|
A|-2---2-----2------2---2-----2------------------------------2---2---4-|
E|---------0---0------------0---0------------------------------------2-|

Verses
E|----------------------------------------------------------|
B|----------------------------------------------------------|
G|----------------------------------------------------------|
D|----------------------------------------------------------|
A|-2222-2222-------2222-2222-------2222-2222-------333-44-5-|
E|-0000-0000-3b-3b-0000-0000-3b-3b-0000-0000-3b-3b-111-22-3-|
PM **** ****       **** ****       **** ****            

Chorus
E|-------------------------------------------------------------------|
B|-------6---------6-----------9------------9----------4---------4---|
G|---7-----7---7-----7---10------10---10------10---5-----5---5-----5-|
D|-----7---------7----------10-----------10----------5---------5-----|
A|-5---------5---------8------------8------------3---------3---------|
E|-------------------------------------------------------------------|
PM * * *     * * *     * ** **      * ** **      * * *     * * *   

E|---------------------------------------------------------------------|
B|-------7---------7----------10-------------10----------5---------5---|
G|---8-----8---8-----8---11------11-----11------11---6-----6---6-----6-|
D|-----8---------8----------11-------------11----------6---------6-----|
A|-6---------6---------9-------------9--------------4---------4--------|
E|---------------------------------------------------------------------|
PM * * *     * * *     * ** **       * **  **       * * *      * * *  

Verses
E|----------------------------------------------------------|
B|----------------------------------------------------------|
G|----------------------------------------------------------|
D|----------------------------------------------------------|
A|-2222-2222-------2222-2222-------2222-2222-------333-44-5-|
E|-0000-0000-3b-3b-0000-0000-3b-3b-0000-0000-3b-3b-111-22-3-|
PM **** ****       **** ****       **** ****            
Добавлено: 05.08.2013
Другие материалы по этой песне:
  • Аккорды и текст

Страница создана 05.08.2013
http://primanota.ru/washya/kryss-chords.htm
Привет, Гость.
Предлагаем пройти революционный курс по гитаре.
Подарок от PrimaNota.Ru, забирай!