PrimaNota.ru - самый крупный в мире бесплатный архив песенных текстов, аккордов, табулатур и нот


Washya - Kink In The Chain - таба

Регистрация Запомнить меня
Войти через:  Facebook Google Twitter Vk Yandex Mail.ru

Washya - Kink In The Chain - таба

Печатать
Просмотров: 44
-----------------------------------------------------------------------------
             Kink In The Chain - Washya
-----------------------------------------------------------------------------
Tuning: Standard (EBGDAE)
Intro
E|-----------------------------------------|--------|
B|-----------------------------------------|--------|
G|---8b--------6b-5b-----------------------|-9b/11b-|
D|------10b-8b-------7b-5b-----------------|-9b/11b-|
A|-------------------------7b-5b-----------|-7b/9-b-|
E|-0-----------------------------3b-5b-1p0-|--------|
PM *                                                 

Main Riff
E|---------------------------------------------------------------|
B|---------------------------------------------------------------|
G|---------------------------------------------------------------|
D|--------------8-7-5-7-8--------------------------8-7----10-9---|
A|--------------6-5-3-5-6-8-7-5-3-5-3--------------6-5-7--8--7-9-|
E|-000000000000-----------6-5-3-1-3-1--0-0-0-0-0-0-----5-------7-|
PM ************                        * * * * * * 

E|------------------|
A|------------------|
D|------------------|
G|------------------|
B|--------------5/8-|
E|-000000000000-3/6-|
PM ************ 

Verses
E|---------------------------------------------------------------------|
B|---------------------------------------------------------------------|
G|-----11b-11b-----9b-9b-----------------------------5b5b5b-----7b7b7b-|
D|-----11b-11b-----9b-9b------------7--------7\5-----5b5b5b-----7b7b7b-|
A|------9b--9b-----7b-7b---------10---10-9-7-7\5-----3b3b3b-----5b5b5b-|
E|-000---------000-------000-000-------------5\3-000--------000--------|
PM ***         ***       *** ***                 ***        *** 

Chorus
E|------------------------------------------------------------------|
B|------------------------------------------------------------------|
G|---------8-----8---7---5------------------------------5-----------|
D|-----5---8-----8---7---5-5-/7-9-8-7-------7-7-7-7-7-7-5-7-8-7-5-2-|
A|-----5---6-----6---5---3-5----------9-7-9---7-7-7-7-7-3-7-8-7-5-2-|
E|-000-3-0---000---0---0---3------------------5-5-5-5-5---5-6-5-3-0-|
PM ***   *   ***   *   *                      * * * * * 
Добавлено: 19.09.2013
Другие материалы по этой песне:
  • Аккорды и текст

Страница создана 19.09.2013
http://primanota.ru/washya/kink-in-the-chain-chords.htm
Привет, Гость.
Предлагаем пройти революционный курс по гитаре.
Подарок от PrimaNota.Ru, забирай!