PrimaNota.ru - самый крупный в мире бесплатный архив песенных текстов, аккордов, табулатур и нот


Washya - Holding Cell - таба, видео

Регистрация Запомнить меня
Войти через:  Facebook Google Twitter Vk Yandex Mail.ru

Washya - Holding Cell - таба, видео

Печатать
Просмотров: 66
-----------------------------------------------------------------------------
                            Holding Cell - Washya
-----------------------------------------------------------------------------
Tuning: Standard (EBGDAE)
Intro
E|---------------------|
B|---------------------|
G|---------------------|
D|---------------------|
A|-555/8-555/7-5/8-5/7-|
E|-333/6-333/5-3/6-3/5-|

Main Riff/Chorus
E|---------------------------------------------------|
B|---------------------------------------------------|
G|---------------------------------------------------|
D|-------------------------------------------4/5-----|
A|---5/7---5/8---3/5---3---5/7---5/8---3/5---2/3-5-2-|
E|-0-3/5-0-3/6-0-1/3-0h1-0-3/5-0-3/6-0-1/3-0-----3-0-|

Verses
E|-----------------------------------------------|
B|-----------------------------------------------|
G|-----------------------------------------------|
D|---------4/5-------------------4/5-------------|
A|---4/5---2/3---8\7-5/7---4/5---2/3---555-333-2-|
E|-0-2/3-0-----0-6\5-3/5-0-2/3-0-----0-333-111-0-|

Guitar Solo
E|-----------------------------------------------8bp7----|
B|---4-4-4-4-------8b-8p6-------------------8-10------10-|
G|-2-----------4-6--------8-8~-9b99999999-9--------------|
D|-----------2-----------------9b99999999----------------|
A|-------------------------------------------------------|
E|-------------------------------------------------------|

E|-21b--------21b--------21b--------22b\-|
B|-----202020-----202020-----202020-21b\-|
G|---------------------------------------|
D|---------------------------------------|
A|---------------------------------------|
E|---------------------------------------|

(play fast)
E|-------------------------------------------------------------------------|
B|-------------------------------------------------------------------------|
G|-------------------------------------------------------13h15h17p13h15h17-|
D|-------------------------------------12h14h16p12h14h16-------------------|
A|-------------------11h13h15p11h13h15-------------------------------------|
E|-10h12h14p10h12h14-------------------------------------------------------|
PM ****************************************  

E|-------------------------------15----------------15h18p15----------------|
B|-14h16h18p14h16h18-18----15h18----18p15----15h18----------18p15----15h18-|
G|----------------------17----------------17----------------------17-------|
D|-------------------------------------------------------------------------|
A|-------------------------------------------------------------------------|
E|-------------------------------------------------------------------------|

E|-15h18p15----15h18-19b-22\-|
B|----------18---------------|
G|---------------------------|
D|---------------------------|
A|---------------------------|
E|---------------------------|
Добавлено: 30.07.2013
Другие материалы по этой песне:
  • Аккорды и текст

Страница создана 30.07.2013
http://primanota.ru/washya/holding-cell-chords.htm
Привет, Гость.
Предлагаем пройти революционный курс по гитаре.
Подарок от PrimaNota.Ru, забирай!