PrimaNota.ru - самый крупный в мире бесплатный архив песенных текстов, аккордов, табулатур и нот


Washya - Hollow Shell - таба

Регистрация Запомнить меня
Войти через:  Facebook Google Twitter Vk Yandex Mail.ru

Washya - Hollow Shell - таба

Печатать
Просмотров: 88
Уроки эстрадного вокала в Санкт-Петербурге
-----------------------------------------------------------------------------
                      Hollow Shell - Washya
-----------------------------------------------------------------------------
Tuning: D Standard (DAFCGD)
Intro
D|-----------------5*--------------------|
A|-----------------5*--------------------|
F|-----------------5*--------------------|
C|---------------------------------------|
G|-2-2-2--2-2-2-------2-2-2--2-2-2-4-5-6-|
D|-0-0-0--0-0-0-xx----0-0-0--0-0-0-2-3-4-|

Intro 2 
D|-----------------------------------------------------------------|
A|-----------------------------------------------------------------|
F|-----------------------------------------------------------------|
C|-----------------------------------------------------------------|
G|-5----5----5----5----5----2h3h5/7----7----7----7----7----8p7p5\3-|
D|---xx---xx---xx---xx---xx---------xx---xx---xx---xx---xx-------1-|

Main Riff (played very fast - mute bass notes)
D|---------------------------------------------------------------------|
A|---------------------------------------------------------------------|
F|---------------------------------------------------------------------|
C|---3h5------3h5----------5p3---------------------------5p3-----------|
G|-----------------------------3p2------3p2p0h2p0h2----------3p2-------|
D|-0-----5-00-----3-00-2h3---------0000-------------0000---------3-2-1-|
PM *     * **     * ** ***         ****             ****         * * * 

D|-----|
A|-----|
F|-----|
C|-----|
G|-8-5-|
D|-6-3-|

Verses
D|----------------------------------------------------------------------|
A|----------------------------------------------------------------------|
F|----------------------------------------------------------------------|
C|----------------------------------------------------------------------|
G|-44------------------44--------------44/10-10-----------------1010-22-|
D|-22-22-222-2-222-222-22-22-222-2-222-22/8--8-88-888-8-888-888-8-8--00-|
PM    ** *** * *** ***    ** *** * ***         ** *** * *** ***        

Chorus (play fast also)
D|------------------------------------------------------------------|
A|------------------------------------------------------------------|
F|------------------------------------------------------------------|
C|------------------------555/777-------------7\5-------------555\3-|
G|-5/4---4/5---4/3---3/4--333/555-8/9---6/7---5\3-3/5-9\8-2-3-333\1-|
D|-3/2-x-2/3-x-2/1-x-1/2-x--------6/7-x-4/5-x-----1/3-7\6-0-1-------|

Guitar Solo
D|---------15p10----------10h15p10----------10h15p10----------10h15/17~-|
A|-12b-13~-------12p10h12----------12p10h12----------12p10h12-----------|
F|-13b------------------------------------------------------------------|
C|----------------------------------------------------------------------|
G|----------------------------------------------------------------------|
D|----------------------------------------------------------------------|

D|-17h18p17h18p17h18p17h20p19p17h20p19p17h20p19p17h20p19p17h20-20b~---|
A|--------------------------------------------------------------------|
F|--------------------------------------------------------------------|
C|--------------------------------------------------------------------|
G|--------------------------------------------------------------------|
D|--------------------------------------------------------------------|

D|-22-22-22-22-22p17h22-22-22-22-22p17h20-20-20-20-20p17h21-21-21-21-21p17-|
A|-------------------------------------------------------------------------|
F|-------------------------------------------------------------------------|
C|-------------------------------------------------------------------------|
G|-------------------------------------------------------------------------|
D|-------------------------------------------------------------------------|

D|---------22-22-22p19----22p19h22-22-22-22p18----22p18h22-22-22-22-22p18--|
A|-19b~-19-------------22----------------------22--------------------------|
F|-------------------------------------------------------------------------|
C|-------------------------------------------------------------------------|
G|-------------------------------------------------------------------------|
D|-------------------------------------------------------------------------|

D|-----------------------------------------------------|
A|-19p17p16----------19--------------------------------|
F|----------17h19h21-----------------------------------|
C|----------------------21p20p18-----------------------|
G|-------------------------------21p20p18--------------|
D|----------------------------------------21p20p18/16~-|

D|-----------------------------------------------------------------12-11-|
A|-----------------------------------------------12-11----12-11-13-------|
F|-----------------------------12-11----12-11-13-------13----------------|
C|-10/12-12/10101010/12-13~-13-------13----------------------------------|
G|-8-/10-10/8-8-8-8/-10--------------------------------------------------|
D|-----------------------------------------------------------------------|

D|-15~-15p12----------12h15p12----------12h15p12h15-16-18b-18b-20~--|
A|--------------12h15-------------12h15-----------------------------|
F|-----------14----------------14-----------------------------------|
C|------------------------------------------------------------------|
G|------------------------------------------------------------------|
D|------------------------------------------------------------------|
Добавлено: 11.08.2013
Другие материалы по этой песне:
  • Аккорды и текст

Страница создана 11.08.2013
http://primanota.ru/washya/hollow-shell-chords.htm
Привет, Гость.
Предлагаем пройти революционный курс по гитаре.
Подарок от PrimaNota.Ru, забирай!