PrimaNota.ru - самый крупный в мире бесплатный архив песенных текстов, аккордов, табулатур и нот


Washya - Heroic Antics - таба

Регистрация Запомнить меня
Войти через:  Facebook Google Twitter Vk Yandex Mail.ru

Washya - Heroic Antics - таба

Печатать
Просмотров: 54
-----------------------------------------------------------------------------
                       Heroic Antics - Washya
-----------------------------------------------------------------------------
Tuning: Standard (ebgDAE)
Intro (Very Heavy Palm Muting) 
e|------------------------------------------------------|
b|------------------------------------------------------|
g|------------------------------------------------------|
D|------------------------------------------------------|
A|-22-2222-2-2-2-22--22-2222-2-2-2-22--22-2222-2-2-2-22-|
E|-00-0000-0-0-0-00--00-0000-0-0-0-00--00-0000-0-0-0-00-|x8
PM ** **** * * * **  ** **** * * * **  ** **** * * * ** 

Main Riff (Play fast)
e|-------------------------------------------|
b|-------------------------------------------|
g|-------------------------------------------|
D|------------6p5p3---4p3--------------------|
A|-5/77-5/8\7-------6-----6-3--------------3-|
E|-3/55-3/6\5-----------------0000-0-0-0-0h1-|
PM                            **** * * * *   

Verses
e|-----------0-----------------------|
b|-----3-------3---------------------|
g|-------4-------4-----4-------2-0h2-|
D|-------------------4-------4-------|
A|---2-------------2-------4---------|
E|-0-------0-------------0-----------|Throughout entire verses
PM *       *             * 

Guitar Solo (Played Slow)
e|----------------------------------------------------------------------|
b|----------------------------------------------------------------------|
g|-9br7~-7p6h7p6h7-7~-9b----------------99p8p6-66p4p3-5-5b~-----4-----2-|
D|--------------------9br7---7h9---7h9~-----------------------4-----2---|
A|-------------------------9-----9--------------------------2-----0-----|
E|----------------------------------------------------------------------|

e|------------------------------------------10----15b-13b-13p12h13~--|
b|---------------------------------------------8b--------------------|
g|--2bp0-2p0h2p0-------------2b-------4h6h7--------------------------|
D|---------------2p0h2-3p2p0----4h6h7--------------------------------|
A|-------------------------------------------------------------------|
E|-------------------------------------------------------------------|

e|-------------------------------------19bp17-191919p17p16-16p14p13--|
b|----------12h14h15----------14h16h17-------------------------------|
g|-12h14h15----------14h16h17----------------------------------------|
D|-------------------------------------------------------------------|
A|-------------------------------------------------------------------|
E|-------------------------------------------------------------------|

e|-13p11p10-------------------------------------------------------|
b|----------7-----------------------------------------------------|
g|------------9b---------8h9/12b-12p11p9--------------------------|
D|------------9b---8h9-7-----------------12p11p9-9p7p6-------4----|
A|---------------7-------------------------------------9p7p6------|
E|-------------------------------------------------------------6b-|

e|-------------------------------------------------------------------12~-|
b|----------------------------------------------------------------14-----|
g|----------------------------------------------13h14h16-12h13h15--------|
D|-------------------------------------12h13h15--------------------------|
A|-------------------12h13h15-13h14h16-----------------------------------|
E|-12h13h15-13h14h16-----------------------------------------------------|

e|-15p12h15p12----12h15p12h15p12-----------16*-----|
b|-------------15-----------------15-13-12-----14~-|
g|-------------------------------------------------|
D|-------------------------------------------------|
A|-------------------------------------------------|
E|-------------------------------------------------|
Добавлено: 31.08.2013
Другие материалы по этой песне:
  • Аккорды и текст

Страница создана 31.08.2013
http://primanota.ru/washya/heroic-antics-chords.htm
Привет, Гость.
Предлагаем пройти революционный курс по гитаре.
Подарок от PrimaNota.Ru, забирай!