PrimaNota.ru - самый крупный в мире бесплатный архив песенных текстов, аккордов, табулатур и нот


Washya - Hold On Baby - таба, видео

Регистрация Запомнить меня
Войти через:  Facebook Google Twitter Vk Yandex Mail.ru

Washya - Hold On Baby - таба, видео

Печатать
Просмотров: 70
------------------------------------------------------------------------------
       Hold On Baby - Washya
------------------------------------------------------------------------------
Tuning: Standard (EBGDAE)
Intro
E|-------------------------------|
B|-------------------------------|
G|-------------------------------|
D|-444-4----------444-4-4/7-7777-|
A|-222-2-5-5/8888-222-2-2/5-5555-|
E|-------3-3/6666----------------|

Verses (Guitar 1)
E|--------------------|
B|--------------------|
G|--------------------|
D|-77-777-77-7-77-777-|
A|-55-555-55-5-55-555-|
E|--------------------|
PM ** *** ** * ** *** 

Verses (Guitar 2 - lead)
E|--------------------------------------------|
B|--------------------------------------------|
G|-5b-5b-5b-44h5-5b-5bp44-2b-2b-2b11-2b-2b-2b-|
D|--------------------------------------------|
A|--------------------------------------------|
E|--------------------------------------------|

Chorus
E|-----------------------------------------------|
B|-----------------------------------------------|
G|-----------------------------------------------|
D|-7777\4444-7777\4444-7/8----7/8----7/8----7/8~-|
A|-5555\2222-5555\2222-5/6----5/6----5/6---------|
E|-------------------------33-----33-----33------|
PM                         **     **     ** 

Lead
E|----------------------------------------------15----15-15----------13----|
B|-------12----12-15-------12----12-15-15-12-13----13-------12-13-15----15-|
G|-10-10----10-------10-10----10-------------------------------------------|
D|-------------------------------------------------------------------------|
A|-------------------------------------------------------------------------|
E|-------------------------------------------------------------------------|

E|-15-15~-|
B|--------|
G|--------|
D|--------|
A|--------|
E|--------|


Verses (Guitar 1)
E|--------------------|
B|--------------------|
G|--------------------|
D|-77-777-77-7-77-777-|
A|-55-555-55-5-55-555-|
E|--------------------|
PM ** *** ** * ** *** 

Verses (Guitar 2 - lead)
E|--------------------------------------------|
B|--------------------------------------------|
G|-5b-5b-5b-44h5-5b-5bp44-2b-2b-2b11-2b-2b-2b-|
D|--------------------------------------------|
A|--------------------------------------------|
E|--------------------------------------------|


Chorus
E|-----------------------------------------------|
B|-----------------------------------------------|
G|-----------------------------------------------|
D|-7777\4444-7777\4444-7/8----7/8----7/8----7/8~-|
A|-5555\2222-5555\2222-5/6----5/6----5/6---------|
E|-------------------------33-----33-----33------|
PM                         **     **     ** 
Добавлено: 20.08.2013
Другие материалы по этой песне:
  • Аккорды и текст

Страница создана 20.08.2013
http://primanota.ru/washya/hold-on-baby-chords.htm
Привет, Гость.
Предлагаем пройти революционный курс по гитаре.
Подарок от PrimaNota.Ru, забирай!