PrimaNota.ru - самый крупный в мире бесплатный архив песенных текстов, аккордов, табулатур и нот


Washya - Hells Bells - таба, видео

Регистрация Запомнить меня
Войти через:  Facebook Google Twitter Vk Yandex Mail.ru

Washya - Hells Bells - таба, видео

Печатать
Просмотров: 86
-----------------------------------------------------------------------------
                         Hell's Bell's - Washya
-----------------------------------------------------------------------------
Tuning: Standard (EBGDAE)
intro
E|-----------------------------------|
B|-----------------------------------|
G|-----------------------------------|
D|-----------------------------------|
A|-2-5-4-3-2-5-4-3-2-5-4-3-2-3-4-5-2-|
E|-0-3-2-1-0-3-2-1-0-3-2-1-0-1-2-3-0-|
PM * * * * * * * * * * * * * * * * 

Part 2 (lead 1)
E|------------------------------------------13~-|
B|----------------------------------12---12-----|
G|--------8p7----------8p7---7h9h11----11-------|
D|--9p7-------9--9p7-------9--------------------|
A|------9------------9--------------------------|
E|----------------------------------------------|

Chorus
E|-------------------------------------------|
B|-------------------------------------------|
G|-------------------------------------------|
D|-------------------------------------------|
A|-222-5/4\5-222-8\7/8-222-3-5-4-3-5-6-5-3-2-|
E|-000-3/2\3-000-6\5/6-000-1-3-2-1-3-4-3-1-0-|
PM ***       ***       *** * * * * * * * * 

Lead 2
E|--------------------------------------------------------|
B|----------------------------------12--------------------|
G|--------8p7----------8p7---7h9h11----11----11-----------|
D|--9p7-------9--9p7-------9--------------12----12--------|
A|------9------------9-----------------------------12-----|
E|----------------------------------------------------10~-|

Verses
E|---------------------------------------|
B|---------------------------------------|
G|------------------------5555-5555------|
D|-2-8-7-2-3-2-10-9-2-3-2-5555-5555-33-2-|
A|-2-8-7-2-3-2-10-9-2-3-2-3333-3333-33-2-|
E|-0-6-5-0-1-0-8--7-0-1-0-----------11-0-|

Part 3 (lead 1)
E|------------------------------------------13~-|
B|----------------------------------12---12-----|
G|--------8p7----------8p7---7h9h11----11-------|
D|--9p7-------9--9p7-------9--------------------|
A|------9------------9--------------------------|
E|----------------------------------------------|

Chorus
E|-------------------------------------------|
B|-------------------------------------------|
G|-------------------------------------------|
D|-------------------------------------------|
A|-222-5/4\5-222-8\7/8-222-3-5-4-3-5-6-5-3-2-|
E|-000-3/2\3-000-6\5/6-000-1-3-2-1-3-4-3-1-0-|
PM ***       ***       *** * * * * * * * * 

Lead 2
E|--------------------------------------------------------|
B|----------------------------------12--------------------|
G|--------8p7----------8p7---7h9h11----11----11-----------|
D|--9p7-------9--9p7-------9--------------12----12--------|
A|------9------------9-----------------------------12-----|
E|----------------------------------------------------10~-|

Verses
E|---------------------------------------|
B|---------------------------------------|
G|------------------------5555-5555------|
D|-2-8-7-2-3-2-10-9-2-3-2-5555-5555-33-2-|
A|-2-8-7-2-3-2-10-9-2-3-2-3333-3333-33-2-|
E|-0-6-5-0-1-0-8--7-0-1-0-----------11-0-|

Part 3 (lead 1)
E|------------------------------------------13~-|
B|----------------------------------12---12-----|
G|--------8p7----------8p7---7h9h11----11-------|
D|--9p7-------9--9p7-------9--------------------|
A|------9------------9--------------------------|
E|----------------------------------------------|

Chorus
E|-------------------------------------------|
B|-------------------------------------------|
G|-------------------------------------------|
D|-------------------------------------------|
A|-222-5/4\5-222-8\7/8-222-3-5-4-3-5-6-5-3-2-|
E|-000-3/2\3-000-6\5/6-000-1-3-2-1-3-4-3-1-0-|
PM ***       ***       *** * * * * * * * * 

Outro (fade out till end of song)
E|---------------------------|
B|---------------------------|
G|---------------------------|
D|-2-8/10-10-2-333-2-7/9-9-2-|
A|-2-8/10-10-2-333-2-7/9-9-2-|
E|-0-6/8--8--0-111-0-5/7-7-0-|


Structure
Intro  x3
Lead 1 x2
Chorus x5
Lead 2 x2
Verse  x2
Lead 1 x2
Chorus x5
Lead 2 x2
Verse  x2
Outro  X repeat until end  
Добавлено: 29.07.2013
Другие материалы по этой песне:
  • Аккорды и текст

Страница создана 29.07.2013
http://primanota.ru/washya/hells-bells-chords.htm
Привет, Гость.
Предлагаем пройти революционный курс по гитаре.
Подарок от PrimaNota.Ru, забирай!