PrimaNota.ru - самый крупный в мире бесплатный архив песенных текстов, аккордов, табулатур и нот


Washya - Hells Fury - таба, видео

Регистрация Запомнить меня
Войти через:  Facebook Google Twitter Vk Yandex Mail.ru

Washya - Hells Fury - таба, видео

Печатать
Просмотров: 98
Уроки эстрадного вокала в Санкт-Петербурге
-----------------------------------------------------------------------------
                         Hell's Fury - Washya
-----------------------------------------------------------------------------
Tuning: Standard (EBGDAE)
Intro
E|---------------------------------------|
B|---------------------------------------|
G|---------------------------------------|
D|---------------------------------------|
A|---------------------------------------|
E|-0-0-0-0-0-0-0-0-0-0-0-0-0-0-0-0-0-0-0-|
PM * * * * * * * * * * * * * * * * * * * x 3

Main Riff/Chorus (Play Fast)
E|-----------------------------------------------------|
B|-----------------------------------------------------|
G|-----------------------------------------------------|
D|-----------------------------------------------------|
A|-----1-2-----------1-2-----------1-2-----------2-3-4-|
E|-0-3-----3-2-1-0-3-----3-2-1-0-3-----3-2-1-0-3-0-1-2-|
PM                                               * * * 

Verses
E|-------------------------------------|
B|-------------------------------------|
G|-------------------------------------|
D|-------------------------------------|
A|-3-2---3-2---3-2---7-5-4---3-2---3-2-|
E|-1-0-x-1-0-x-1-0-x-5-3-2-x-1-0-x-1-0-|
PM * *   * *   * *           * *   * * 

Solo 
E|--------------------------------18-17----19-18-16----------------15-17-18-|
B|---------17----17----18b~-18-19-------19----------17-18-15-17-18----------|
G|-16b~-16----16----16------------------------------------------------------|
D|--------------------------------------------------------------------------|
A|--------------------------------------------------------------------------|
E|--------------------------------------------------------------------------|

E|-------------------------------------------------------------------------|
B|-------------------------------------13h15h16-13h15h16-15h17h18-15h17h18-|
G|-12h14h15-12h14h15-13h15h16-13h15h16-------------------------------------|
D|-------------------------------------------------------------------------|
A|-------------------------------------------------------------------------|
E|-------------------------------------------------------------------------|

E|-15h17h18-15h17h18-16h18h19-16h18h19~-19p18p16h19p18p16-------------|
B|--------------------------------------------------------16h19p18p16-|
G|--------------------------------------------------------------------|
D|--------------------------------------------------------------------|
A|--------------------------------------------------------------------|
E|--------------------------------------------------------------------|

E|-----------------------------------------------------------------------|
B|-----------------------------------------------------------------------|
G|-16h19p18p16h19p18p16--------------------------------------------------|
D|----------------------15h18p17p15h18p17p15-----------------------------|
A|-------------------------------------------18p17p15h18p17p15-----------|
E|-------------------------------------------------------------18p17p15\-|

Verses
E|-------------------------------------|
B|-------------------------------------|
G|-------------------------------------|
D|-------------------------------------|
A|-3-2---3-2---3-2---7-5-4---3-2---3-2-|
E|-1-0-x-1-0-x-1-0-x-5-3-2-x-1-0-x-1-0-|
PM * *   * *   * *           * *   * * 

Main Riff/Chorus (Play Fast)
E|-----------------------------------------------------|
B|-----------------------------------------------------|
G|-----------------------------------------------------|
D|-----------------------------------------------------|
A|-----1-2-----------1-2-----------1-2-----------2-3-4-|
E|-0-3-----3-2-1-0-3-----3-2-1-0-3-----3-2-1-0-3-0-1-2-|
PM                                               * * * 

Interlude/Bridge/Outro
E|------------------------------------------------------------------|
B|------------------------------------------------------------------|
G|------------------------------------------------------------------|
D|-------7-------7/8-------5-------5/6------------------------------|
A|-------5-------5/6-------3-------3/4-------5~-------5/6~-------3~-|
E|-00000---00000-----00000---00000-----00000----00000------00000----|
PM *****   *****     *****   *****     *****    *****      ***** 

E|---------------------------|
B|---------------------------|
G|---------------------------|
D|---------------------------|
A|-------3/4~----------------|
E|-00000------000000-0000-00-|
PM *****      ****** **** **   
Добавлено: 28.10.2013
Другие материалы по этой песне:
  • Аккорды и текст

Страница создана 28.10.2013
http://primanota.ru/washya/hells-fury-chords.htm
Привет, Гость.
Предлагаем пройти революционный курс по гитаре.
Подарок от PrimaNota.Ru, забирай!