PrimaNota.ru - самый крупный в мире бесплатный архив песенных текстов, аккордов, табулатур и нот


Washya - Halo Of Fire - таба, видео

Регистрация Запомнить меня
Войти через:  Facebook Google Twitter Vk Yandex Mail.ru

Washya - Halo Of Fire - таба, видео

Печатать
Просмотров: 86
Уроки эстрадного вокала в Санкт-Петербурге
-----------------------------------------------------------------------------
                          Halo Of Fire - Washya
-----------------------------------------------------------------------------
Tuning: Drop C (DAFCGC)
Intro
D|---------------------|
A|---------------------|
F|-6-7-10-9-8-11/13\12-|
C|---------------------|
G|-4-5-8--7-6-9/11\10--|
C|---------------------|

D|-----------------------------|
A|-----------------------------|
F|-5-4/7-9/10/14--11\7-5/7-3/5-|
C|-----------------------------|
G|-3-2/5-7/8/-12--9-\5-3/5-1/3-|
C|-----------------------------|

Verses
D|-------------------------------------|
A|-------------------------------------|
F|-5-5-5/777-3-3-3-222-5-5-5/888-7-7-7-|
C|-5-5-5/777-3-3-3-222-5-5-5/888-7-7-7-|
G|-3-3-3/555-1-1-1-000-3-3-3/666-5-5-5-|
C|-------------------------------------|

Part 2
D|--------------------------------------------------13----15----16----18----|
A|--------------------------------------------12-12----12----12----12----17-|
F|----------------------7---10----------------------------------------------|
C|---------------10p7h9---9-------------------------------------------------|
G|-0-3-2-0-2-0-3---------------0-3-2-0-2-0-3--------------------------------|
C|-0-3-2-0-2-0-3---------------0-3-2-0-2-0-3--------------------------------|
PM * * * * * * *               * * * * * * * 

Chorus
D|---------------------------------------------------------------------|
A|---------------------------------------------------------------------|
F|------------------------------------------777------------------------|
C|------------------------------------4h6h7-777------------------------|
G|-2222-00-2222-00-2222\1-------2h4h6-------555-111/44-444-4-444-------|
C|-2222-00-2222-00-2222\1-2h4h5-----------------111/44-444-4-444/3h5h6-|

D|---------------------------------------------------------------|
A|---------------------------------------------------------------|
F|---------------------------------------------------------------|
C|-------------7-777\444-----------------------------5\4/5-------|
G|-3h5h6-3h5h6---555\222-2222-0-2222-0-2222/444\22/4-3\2/3-4-3-1-|
C|-----------------------2222-0-2222-0-2222/444\22/4-------4-3-1-|
Добавлено: 10.10.2013
Другие материалы по этой песне:
  • Аккорды и текст

Страница создана 10.10.2013
http://primanota.ru/washya/halo-of-fire-chords.htm
Привет, Гость.
Предлагаем пройти революционный курс по гитаре.
Подарок от PrimaNota.Ru, забирай!