PrimaNota.ru - самый крупный в мире бесплатный архив песенных текстов, аккордов, табулатур и нот


Washya - Heart To Heart - таба, видео

Регистрация Запомнить меня
Войти через:  Facebook Google Twitter Vk Yandex Mail.ru

Washya - Heart To Heart - таба, видео

Печатать
Просмотров: 66
------------------------------------------------------------------------------
                 Heart To Heart - Washya
------------------------------------------------------------------------------
Tuning: Standard (EBGDAE)
Intro/Verses
E|---------2-----2---2---5---2-|
B|-3---3-----3-----3---3---3---|
G|---2---2-----2---------------|
D|-----------------------------|
A|-----------------------------|
E|-----------------------------|

Chorus D,     C,     Em,       G,      A. 
E|-22-2-2-2-------------------33-3-3-3-00-0-0-0-|
B|-33-3-3-3-11-1-1-1----------33-3-3-3-22-2-2-2-|
G|-22-2-2-2-00-0-0-0----------00-0-0-0-22-2-2-2-|
D|----------22-2-2-2-22-2-2-2-00-0-0-0-22-2-2-2-|
A|----------33-3-3-3-22-2-2-2-22-2-2-2-00-0-0-0-|
E|-------------------00-0-0-0-33-3-3-3----------|

Lead
E|--------------------------------|
B|-12h14~-13~---------11-------12-|
G|------------15~-13~----13-15----|
D|--------------------------------|
A|--------------------------------|
E|--------------------------------|
Добавлено: 21.07.2013
Другие материалы по этой песне:
  • Аккорды и текст

Страница создана 21.07.2013
http://primanota.ru/washya/heart-to-heart-chords.htm
Привет, Гость.
Предлагаем пройти революционный курс по гитаре.
Подарок от PrimaNota.Ru, забирай!