PrimaNota.ru - самый крупный в мире бесплатный архив песенных текстов, аккордов, табулатур и нот


Washya - Hard Times And Borrowed Cash - таба

Регистрация Запомнить меня
Войти через:  Facebook Google Twitter Vk Yandex Mail.ru

Washya - Hard Times And Borrowed Cash - таба

Печатать
Просмотров: 59
------------------------------------------------------------------------------
   Hard Times And Borrowed Cash - Washya
------------------------------------------------------------------------------
Tuning: Standard (EBGDAE)
Intro
E|-------0-------0----0-|
B|-----3-------3--3h5---|
G|---2-------2----------|
D|-0-------0------------|
A|----------------------|
E|----------------------|x3

Verses
E|------------------------------------------------------------------|
B|------------------------------------------------------------------|
G|------------------------------------------------------------------|
D|------------------------------------------------------------------|
A|-3---------------------------2----------------------3-----5-------|
E|-1-0000-000-000-00000-00-000-1-000-0000-00-0000-000-1-000-3-1h3p1-|
PM   **** *** *** ***** ** ***   *** **** ** **** ***   ***   ***** 

Chorus
E|------------------------------------------------------------------|
B|------------------------------------------------------------------|
G|-----------------------------------------------15p13p12/19~-------|
D|-----/12~\-----/15~\-----/18~--------/19p18p16--------------------|
A|-444-------222-------555------10-9-7------------------------2-3-2-|
E|-222-------000-------333------8--7-5------------------------0-1-0-|

Guitar Solo
E|-------------------------19----------------19-21~-|
B|---------18----18----19---------------------------|
G|-/15-/17----17----17--------17-16----16-17--------|
D|----------------------------------14--------------|
A|--------------------------------------------------|
E|--------------------------------------------------|

E|-21-22--------------------------------------------|
B|-------22-21-22-21--------------------------------|
G|-------------------22-21-20-21--------------------|
D|-------------------------------21-22--------------|
A|-------------------------------------22-21-22-----|
E|----------------------------------------------22~-|

E|------------------------12h15p14p12h15p14p12-------------------|
B|--------11----11----12~----------------------15p14p12h15p14p12-|
G|-/9-/10----10----10--------------------------------------------|
D|---------------------------------------------------------------|
A|---------------------------------------------------------------|
E|---------------------------------------------------------------|

E|-----------------------------------------------------------------|
B|-----------------------------------------------------------------|
G|-14p13p11h14p13p11-----------------------------------------------|
D|-------------------14p13p11h14p13p11-----------------------------|
A|-------------------------------------13p12p10h13p12p10-----------|
E|-------------------------------------------------------13p12p10~-|

E|-9t18p15p9t15p12p9----------------------14t20p17p14t20p17p14t20p14t2020-|
B|-------------------10t19p13p10t19p13p10---------------------------------|
G|------------------------------------------------------------------------|
D|------------------------------------------------------------------------|
A|------------------------------------------------------------------------|
E|------------------------------------------------------------------------|
Добавлено: 08.12.2013
Другие материалы по этой песне:
  • Аккорды и текст

Страница создана 08.12.2013
http://primanota.ru/washya/hard-times-and-borrowed-cash-chords.htm
Привет, Гость.
Предлагаем пройти революционный курс по гитаре.
Подарок от PrimaNota.Ru, забирай!