PrimaNota.ru - самый крупный в мире бесплатный архив песенных текстов, аккордов, табулатур и нот


Washya - Great Expectations - таба, видео

Регистрация Запомнить меня
Войти через:  Facebook Google Twitter Vk Yandex Mail.ru

Washya - Great Expectations - таба, видео

Печатать
Просмотров: 58
-----------------------------------------------------------------------------
                    Great Expectations - Washya
-----------------------------------------------------------------------------
Tuning: Standard (ebgDAE)
Intro
e|-----------------------------------------------------------|
b|-----------------------------------------------------------|
g|-----------------------------------------------------------|
D|-------7/8-5/7-------7/8\7-5-------7-------7-------7/8-5/7-|
A|-------5/6-3/5-------5/6\5-3-------6-------6-------5/6-3/5-|
E|-00000---------00000---------00000---00000---00000---------|
PM *****         *****         *****   *****   ***** 

Verses
e|-------------------------------------|
b|-------------------------------------|
g|-------------------------------------|
D|------7------8---7---8---5------77/8-|
A|------5------6---5---6---3------55/6-|
E|-0000---0000---0---0---0---0000------|
PM ****   ****   *   *   *   ****

Chorus
e|--------------------------------------------------------------|
b|--------------------------------------------------------------|
g|--------------------------------------------------------------|
D|--------3-------------5-4-------------------------------------|
A|-5-77-5-1-5-3-55-33-5-3-2-5-555555/888888-333333-55555-22-457-|
E|-3-55-3---3-1-33-11-3-----3-333333/666666-111111-33333-00-235-|
PM                            ****** ****** ****** ***** 

Guitar Solo
e|-------------------------------------------------------------------|
b|-2b-2b-4b-2b-6b-6----6-5----5-4------------------------------------|
g|-4b-4b-6b-4b-8b---44-----33-----22-4-2---------4-2-----------------|
D|---------------------------------------4-2-0-2-----0-2h4p2-0-------|
A|-------------------------------------------------------------2p0-2-|
E|-----------------------------------------------------------------0-|

e|---------------------------------------------------------6-5-6-10~-|
b|-------------------------------------------------6-5-6-8-----------|
g|-------------------------------------5-6-8-5-6-8-------------------|
D|-------------------------2-3-5-2-3-5-------------------------------|
A|-------------2-3-5-2-3-5-------------------------------------------|
E|-1-3-5-1-3-5-------------------------------------------------------|
PM * * * * * * * * * * * * * * * * * * 

e|-10h15p10h15p10h15p10----10h14p10h15p14p10h15b----15-12-------12t19p15p12-|
b|----------------------12-----------------------12-------15-12-------------|
g|--------------------------------------------------------------------------|
D|--------------------------------------------------------------------------|
A|--------------------------------------------------------------------------|
E|--------------------------------------------------------------------------|

                                             



	
	
Добавлено: 19.06.2013
Другие материалы по этой песне:
  • Аккорды и текст

Страница создана 19.06.2013
http://primanota.ru/washya/great-expectations-chords.htm
Привет, Гость.
Предлагаем пройти революционный курс по гитаре.
Подарок от PrimaNota.Ru, забирай!