PrimaNota.ru - самый крупный в мире бесплатный архив песенных текстов, аккордов, табулатур и нот


Washya - Grey Stripes - таба, видео

Регистрация Запомнить меня
Войти через:  Facebook Google Twitter Vk Yandex Mail.ru

Washya - Grey Stripes - таба, видео

Печатать
Просмотров: 78
Уроки эстрадного вокала в Санкт-Петербурге
-------------------------------------------------------------------------------
                               Grey Stripes - Washya
-------------------------------------------------------------------------------
Tuning: Standard (EBGDAE)
Intro
E|-3-3-3-3-0---------------3-----------------0-----------1-3-|
B|-3-3-3-3-0-0h1-----------3-------1p0-------0-----------1-3-|
G|-0-0-0-0-2-----2---------0-----0-----2-----0-----------2-4-|
D|-0---0-0-2-------0-----0-0---2---------2p0-2-2p0-------3-5-|
A|-0---2-0-0-----------2---2-3---------------2-----3p2p0-3-5-|
E|-3---3-2-0---------3-----3-----------------0-----------1-3-|

Chorus
E|------------------------------------3-----0---------------------------------|
B|-------1p0---1p0----------------------3-----3---------1p0-------------------|
G|-----------2---------0------------------2-----0-----------2p0-----0---------|
D|-------------------2--------------2-----------------1-----------2-------2-2-|
A|---2-------------3------3p2p0---2-----------------3-----------3-------2---2-|
E|-0---0------------------------0-----------------0-------------------0-----0-|

Solo/Slowly
E|--------------------------------4h7p5---7p5-----3-5/8-6---------|
B|-----------------------3h5p3--5-------4-----4-4---------10b-8---|
G|---3-6-5-3--6-5-3--3-5------------------------------------------|
D|-5--------------------------------------------------------------|
A|----------------------------------------------------------------|
E|----------------------------------------------------------------|

E|------------------------------------------------------------------10p8p7-|
B|----8h10p8----8h10p8-----6-9p8-----5-----5-----5-------------------------|
G|-10--------10--------6-8-----------------------------------5h6p5---------|
D|-10--------10------------------5h7---7p5---7p5---7p5h7-5h7---------------|
A|-------------------------------------------------------------------------|
E|-------------------------------------------------------------------------|

E|-10p8---10p8---10p8-----------------5---6/5---------------3---------------|
B|------7------7------7-------------3-5-3-6-------3p2---3p2---3p2-----------|
G|----------------------9---------------------3h5-----3-----------3-----3-5-|
D|----------------------------7-9-7---------------------------------3-5-----|
A|------------------------7-9-----------------------------------------------|
E|--------------------------------------------------------------------------|

E|---------------5-3-5--5-3-5-----3-----3-----6p5p3---5p4-----3p2-------2-|
B|---------------5-3-5--5-3-5-----3-----3-----------6-----2h4-----4-2---2-|
G|-----5h7p5---4--------------3h5---3h5---3h5-------------------------4---|
D|-7-9-------5------------------------------------------------------------|
A|------------------------------------------------------------------------|
E|------------------------------------------------------------------------|

E|-2/4\2\1-----------------------------------5p3---5p3-5p3---5p3---------|
B|-2/4\2\1-4\2\1-1p0---1p0---1p0-----2h3p2-------5---------5-----5-------|
G|-------------------2-----2-----2h4-------3---------------------5-----3-|
D|-----------------------------------------------------------------3h5---|
A|-----------------------------------------------------------------------|
E|-----------------------------------------------------------------------|

E|-----------5---5-5-----5-----3-----3-----3---------------------------0-|
B|-5p3-------5---5-5-----5-----3-----3-----3-------1p0-----------------0-|
G|-----3h5h7---7-----7-5---7-5---5-3---5-3---1p0-------2-1p0---0h2p0---0-|
D|-----------------------------------------------2-----------2-------2-2-|
A|---------------------------------------------------------------------2-|
E|---------------------------------------------------------------------0-|
Добавлено: 24.09.2013
Другие материалы по этой песне:
  • Аккорды и текст

Страница создана 24.09.2013
http://primanota.ru/washya/grey-stripes-chords.htm
Привет, Гость.
Предлагаем пройти революционный курс по гитаре.
Подарок от PrimaNota.Ru, забирай!