PrimaNota.ru - самый крупный в мире бесплатный архив песенных текстов, аккордов, табулатур и нот


Washya - Gregorian Calendar - таба

Регистрация Запомнить меня
Войти через:  Facebook Google Twitter Vk Yandex Mail.ru

Washya - Gregorian Calendar - таба

Печатать
Просмотров: 52
Уроки эстрадного вокала в Санкт-Петербурге
-------------------------------------------------------------------------------
             Gregorian Calendar - Washya
-------------------------------------------------------------------------------
Tuning: Standard (EBGDAE)
Intro
E|-----------------------------------------------------------------|
B|-----------------------------------------------------------------|
G|-----------------------------------------------------------------|
D|---------------------------------------------------------3---5---|
A|-----------5\44-4\333-2-----------5\44-4\333-2-----------1-5-3-3-|
E|-0000-0000-3\22-2\111-0-0000-0000-3\22-2\111-0-0000-0000---3---1-|
PM **** ****              **** ****              **** **** * * * 

Verses
E|----------|
B|----------|
G|----------|
D|--------3-|
A|-555\44-1-|
E|-333\22---|

Chorus
E|-------------------------------------------------------|
B|-------------------------------------------------------|
G|-------------------------------------------------------|
D|---------3---------------------5-----------6---6-------|
A|-555-333-1-5-7-8-10-8--777-555-3-3-5-6-8-6-4-6-4-4/5/6-|
E|-333-111---3-5-6-8--6--555-333---1-3-4-6-4---4---2/3/4-|
PM                                           * * * 
Добавлено: 22.10.2013
Другие материалы по этой песне:
  • Аккорды и текст

Страница создана 22.10.2013
http://primanota.ru/washya/gregorian-calendar-chords.htm
Привет, Гость.
Предлагаем пройти революционный курс по гитаре.
Подарок от PrimaNota.Ru, забирай!