PrimaNota.ru - самый крупный в мире бесплатный архив песенных текстов, аккордов, табулатур и нот


Washya - Go With The Flow - таба, видео

Регистрация Запомнить меня
Войти через:  Facebook Google Twitter Vk Yandex Mail.ru

Washya - Go With The Flow - таба, видео

Печатать
Просмотров: 70
-----------------------------------------------------------------------------
             Go With The Flow - Washya (very rock and roll like song)
-----------------------------------------------------------------------------
Tuning: Standard (ebgDAE)
Intro three times
e|---------------|---------------|
b|---------------|---------------|
g|---------------|---------------|
D|-------------3-|---------------|
A|-----6-5-3-----|-----6-5-3-7-5-|
E|-3-5-------5---|-3-5-------5-3-|
PM * * * * * *     * * * * *  

Verses
e|-------------------------------|
b|-------------------------------|
g|-------------------------------|
D|-44-2-------4-44-2---------2---|
A|-22-0-4p2h4-2-22-0-2h4p2h4-0-2-|
E|-----------------------------0-|

Chorus
e|----------------------------------|
b|----------------------------------|
g|----------------------------------|
D|-444---------------333-2-22-5-3---|
A|-222-4-2-4-2-6-6-5-111-0-00-3-1-3-|
E|-----2-0-2-0-4-4-3--------------1-|

solo
e|-------------------------------------------------------------|
b|-9b-9br---------------11b-9-9h11p9h11-11~-11-13-11-13-13-15~-|
g|-9b-9br-7~---7---9~-/-11b------------------------------------|
D|-----------9---9---/-----------------------------------------|
A|-------------------------------------------------------------|
E|-------------------------------------------------------------|

e|-13b-10-13-13b-13-10----------------------------12b-12b-14~\-|
b|---------------------13-10----10----------------12b-12b-14-\-|
g|---------------------------13----13-10----10-13--------------|
D|---------------------------------------12--------------------|
A|-------------------------------------------------------------|
E|-------------------------------------------------------------|
Добавлено: 05.10.2013
Другие материалы по этой песне:
  • Аккорды и текст

Страница создана 05.10.2013
http://primanota.ru/washya/go-with-the-flow-chords.htm
Привет, Гость.
Предлагаем пройти революционный курс по гитаре.
Подарок от PrimaNota.Ru, забирай!