PrimaNota.ru - самый крупный в мире бесплатный архив песенных текстов, аккордов, табулатур и нот


Washya - Fiery Hand From Hell - таба

Регистрация Запомнить меня
Войти через:  Facebook Google Twitter Vk Yandex Mail.ru

Washya - Fiery Hand From Hell - таба

Печатать
Просмотров: 44
-----------------------------------------------------------------------------
       Fiery Hand From Hell - Washya
-----------------------------------------------------------------------------
Tuning: Standard (EBGDAE)
Intro
E|-------------------------------------------------------------------------|
B|-------------------------------------------------------------------------|
G|-------------------------------------------------------------------------|
D|-------------------------------------------------------------------------|
A|-------12-15-12----------12----12-15-12----------12-15-12----------12----|
E|-12-15----------15-12-15----15----------15-12-15----------15-12-15----15-|
PM ** ** ** ** ** ** ** ** ** ** ** ** ** ** ** ** ** ** ** ** ** ** ** **

E|-------------------------------------|
B|-------------------------------------|
G|-------------------------------------|
D|----------------------------------12-|
A|-12-15-12----------12----12h13h14----|
E|----------15-12-15----15-------------|
PM ** ** ** ** ** ** ** **

Part 2
E|---------------|
B|---------------|
G|---------------|
D|---------------|
A|-15p14p12------|
E|----------14\\-|

Main Riff/Chorus
E|-------------------------------------------------------------------------|
B|-------------------------------------------------------------------------|
G|-------------------------------------------------------------------------|
D|-----------------------------------------------------------------------3-|
A|-----3-5-3--------3-5-3--------3---3-5-3--------3-5-3--------3---3h4h5---|
E|-3-5-------5--3-5-------5--3-5---5-------5--3-5-------5--3-5---5---------|
PM * * * * * *  * * * * * *  * * * * * * * *  * * * * * *  * * * *  

Verses
E|---------------------------------------------------------------|
B|---------------------------------------------------------------|
G|---------------------------------------------------------------|
D|---------------------------------------------------------------|
A|-------------------------------------------------------0h1---2-|
E|-000-0-0-0-0-0-000-000-0-0-0-0-0-000-000-0-0-0-0-0-000-----3-0-|
PM *** * * * * * *** *** * * * * * *** *** * * * * * *** 

Part 2
E|-----------------|
B|-----------------|
G|-----------------|
D|-----------------|
A|-0h1-----0h1-----|
E|-----3-1-----3-0-|

Part Before
Solo
E|-----------------------------|
B|-----------------------------|
G|-----------------------------|
D|-7777-77-------7777-77-------|
A|-5555-55-5-4-3-5555-55-5-4/8-|
E|---------3-2-1---------3-2/6-|
PM         * * *         * * 

Guitar Solo
E|---------------------8p6p5h8p6p5-------------8p6p5h8p6p5---7b~-|
B|----------3p2-----3~-------------7p5p4h7p5p4-------------5-7b~-|
G|-/4b~-2h4-----4p2----------------------------------------------|
D|---------------------------------------------------------------|
A|---------------------------------------------------------------|
E|---------------------------------------------------------------|

E|------------------------------------------------------------------|
B|------------------------------------------------------------------|
G|------------------------------------------------14-16-17-14-16-17-|
D|---------------------------------------13-16-17-------------------|
A|---------------------13-16-17-13-16-17----------------------------|
E|-//13-16-17-13-16-17----------------------------------------------|
PM   ** ** ** ** ** ** ** ** ** ** ** 

E|----------15-17-18-15-17-18~~~-18p16p15h18p16p15h18p16p15h18p16p15~~-|
B|-14-16-17------------------------------------------------------------|
G|---------------------------------------------------------------------|
D|---------------------------------------------------------------------|
A|---------------------------------------------------------------------|
E|---------------------------------------------------------------------|

E|-------------------------------------------------------------------------|
B|-19p17p16h19p17p16-------------------------------------------------------|
G|-------------------19p17p16h19p17p16-15p13p12h15p13p12-------------------|
D|-------------------------------------------------------15p13p12h15p13p12-|
A|-------------------------------------------------------------------------|
E|-------------------------------------------------------------------------|

E|---------------------------------------------------------|
B|---------------------------------------------------------|
G|---------------------------------------------------------|
D|---------------------------------------------------------|
A|-15p13p12----13p12h15p13p12-------12---------------------|
E|----------15----------------15p13----15p13p12h15p13p12~~-|


Main Riff/Chorus
E|-------------------------------------------------------------------------|
B|-------------------------------------------------------------------------|
G|-------------------------------------------------------------------------|
D|-----------------------------------------------------------------------3-|
A|-----3-5-3--------3-5-3--------3---3-5-3--------3-5-3--------3---3h4h5---|
E|-3-5-------5--3-5-------5--3-5---5-------5--3-5-------5--3-5---5---------|
PM * * * * * *  * * * * * *  * * * * * * * *  * * * * * *  * * * *  

Verses
E|---------------------------------------------------------------|
B|---------------------------------------------------------------|
G|---------------------------------------------------------------|
D|---------------------------------------------------------------|
A|-------------------------------------------------------0h1---2-|
E|-000-0-0-0-0-0-000-000-0-0-0-0-0-000-000-0-0-0-0-0-000-----3-0-|
PM *** * * * * * *** *** * * * * * *** *** * * * * * *** 

Part 2
E|-----------------|
B|-----------------|
G|-----------------|
D|-----------------|
A|-0h1-----0h1-----|
E|-----3-1-----3-0-|


Outro
E|----------------------------------------------------|
B|----------------------------------------------------|
G|----------------------------------------------------|
D|----------------------------------------0-----------|
A|-22-3-2-4-2-22-3-2-4-2-345-xx-0h1---1h2---2p1p0---2-|
E|-00-1-0-2-0-00-1-0-2-0-123-xx-----3-------------3-0-|
PM ** * * * * ** * * * * 
Добавлено: 12.10.2013
Другие материалы по этой песне:
  • Аккорды и текст

Страница создана 12.10.2013
http://primanota.ru/washya/fiery-hand-from-hell-chords.htm
Привет, Гость.
Предлагаем пройти революционный курс по гитаре.
Подарок от PrimaNota.Ru, забирай!