PrimaNota.ru - самый крупный в мире бесплатный архив песенных текстов, аккордов, табулатур и нот


Washya - Firey Gates Of Hell - таба, видео

Регистрация Запомнить меня
Войти через:  Facebook Google Twitter Vk Yandex Mail.ru

Washya - Firey Gates Of Hell - таба, видео

Печатать
Просмотров: 58
Уроки эстрадного вокала в Санкт-Петербурге
-----------------------------------------------------------------------------
          Fiery Gates Of Hell - Washya
-----------------------------------------------------------------------------
Tuning: Standard (EBGDAE)
Intro/Verses
E|-----------0-----------------------------|
B|---------0-----0---------------0-------3-|
G|-------3-----3---------0-----2-------4---|
D|-----0---------------4-----4-------2-----|
A|---4---------------2-----0-------0-------|
E|-2---------------0-----------------------|

Chorus/Main Riff
E|-----------------------|------------------------------------------|
B|-----------------------|------------------------------------------|
G|--------------------2~-|------------------------------------------|
D|-----------2h4~--------|------------------3---------------5-------|
A|-2-----2h4------2h4----|--2-3-5---7---8---1-2-5---7---8---3-2-3-4-|
E|-0-000-----------------|-\0-1-333/555/666---0-333/555/666---0-1-2-|
PM   ***                         **  **  **      **  **  **   * * 

Verses
E|-----------0-----------------------------|
B|---------0-----0---------------0-------3-|
G|-------3-----3---------0-----2-------4---|
D|-----0---------------4-----4-------2-----|
A|---4---------------2-----0-------0-------|
E|-2---------------0-----------------------|

Chorus/Main Riff
E|-----------------------|------------------------------------------|
B|-----------------------|------------------------------------------|
G|--------------------2~-|------------------------------------------|
D|-----------2h4~--------|------------------3---------------5-------|
A|-2-----2h4------2h4----|--2-3-5---7---8---1-2-5---7---8---3-2-3-4-|
E|-0-000-----------------|-\0-1-333/555/666---0-333/555/666---0-1-2-|
PM   ***                         **  **  **      **  **  **   * * 

Solo 1 (slow)
E|---------------8p7-----7b~-----------|
B|-/12b~-9b~-5b~-----4b~-----2b~-----2-|
G|-------------------------------2h4---|
D|-------------------------------------|
A|-------------------------------------|
E|-------------------------------------|

Verses
E|-----------0-----------------------------|
B|---------0-----0---------------0-------3-|
G|-------3-----3---------0-----2-------4---|
D|-----0---------------4-----4-------2-----|
A|---4---------------2-----0-------0-------|
E|-2---------------0-----------------------|

Chorus/Main Riff
E|-----------------------|------------------------------------------|
B|-----------------------|------------------------------------------|
G|--------------------2~-|------------------------------------------|
D|-----------2h4~--------|------------------3---------------5-------|
A|-2-----2h4------2h4----|--2-3-5---7---8---1-2-5---7---8---3-2-3-4-|
E|-0-000-----------------|-\0-1-333/555/666---0-333/555/666---0-1-2-|
PM   ***                         **  **  **      **  **  **   * * 

Verses
E|-----------0-----------------------------|
B|---------0-----0---------------0-------3-|
G|-------3-----3---------0-----2-------4---|
D|-----0---------------4-----4-------2-----|
A|---4---------------2-----0-------0-------|
E|-2---------------0-----------------------|

Solo 2 (slow)
E|---------------------------------------|
B|---------------------------------------|
G|-----------10bp9----10p9---------------|
D|-/7~-6~-5~--------------------------3~-|
A|-----------------7~------5~-----3h4----|
E|----------------------------3h5--------|

Verses
E|-----------0-----------------------------|
B|---------0-----0---------------0-------3-|
G|-------3-----3---------0-----2-------4---|
D|-----0---------------4-----4-------2-----|
A|---4---------------2-----0-------0-------|
E|-2---------------0-----------------------|

Chorus/Main Riff
E|-----------------------|------------------------------------------|
B|-----------------------|------------------------------------------|
G|--------------------2~-|------------------------------------------|
D|-----------2h4~--------|------------------3---------------5-------|
A|-2-----2h4------2h4----|--2-3-5---7---8---1-2-5---7---8---3-2-3-4-|
E|-0-000-----------------|-\0-1-333/555/666---0-333/555/666---0-1-2-|
PM   ***                         **  **  **      **  **  **   * * 

Solo 3 (Main Solo)
E|---------------------------------------------------------13----13-15~-|
B|-----------------------------10----8h9h11-----11p9h10h12----12--------|
G|------5---3-5/7-5---7-5-7/10----10--------11--------------------------|
D|-/3h5---5---------7---------------------------------------------------|
A|----------------------------------------------------------------------|
E|----------------------------------------------------------------------|

Get Ready!!!
E|----------------------------7h8h10p7h8h10/13p11p10h11h13/15p13p12h13h15-|
B|-/5h6h8p5h6h8/7h8h10p7h8h10---------------------------------------------|
G|------------------------------------------------------------------------|
D|------------------------------------------------------------------------|
A|------------------------------------------------------------------------|
E|------------------------------------------------------------------------|

E|-15/18p16p15h16h18/-20b-20b~\----------------------------------------|
B|---------------------------------------------------------------------|
G|---------------------------------------------------------------------|
D|---------------------------------------------------------------------|
A|------------------------------------------------12h13h14p12h13h14----|
E|------------------------------11h12h13p11h12h13----------------------|

E|----------------------------------------------------------19----15----19-|
B|-------------------------------------14h15h17p14h15h17-17----17----17----|
G|-------------------13h14h16p13h14h16-------------------------------------|
D|-13h14h15p13h14h15-------------------------------------------------------|
A|-------------------------------------------------------------------------|
E|-------------------------------------------------------------------------|

E|---------15h19p15-----15h19p15-----15h19p15-----15-----15-----15~-|
B|-17~-----15-----------15-----------15-----------15-----15-----15~-|
G|-----17b----------17b----------17b----------17b----17b----17b-----|
D|------------------------------------------------------------------|
A|------------------------------------------------------------------|
E|------------------------------------------------------------------|

E|-15h19-19-19-19-19p15h19-19-19-19p15h20-20-20-20-20-20p15h20-20-20-20-20-|
B|-------------------------------------------------------------------------|
G|-------------------------------------------------------------------------|
D|-------------------------------------------------------------------------|
A|-------------------------------------------------------------------------|
E|-------------------------------------------------------------------------|

E|-20p15/21b~-21p19b-19-20h21p20----20p19h20p19\17-15h16h18p16p15-------|
B|-------------------------------21-------------------------------18p16-|
G|----------------------------------------------------------------------|
D|----------------------------------------------------------------------|
A|----------------------------------------------------------------------|
E|----------------------------------------------------------------------|

E|-------------------------------------------------------------------------|
B|----17p16----------------------------------------------------------------|
G|-18-------17h18h19-------------------19p18p16----------------------------|
D|-------------------18p17h18----18p17----------18p17p15-14h15p14-12h14p12-|
A|----------------------------19-------------------------------------------|
E|-------------------------------------------------------------------------|

E|----------------------------------------------|
B|----------------------------------------------|
G|----------------------------------------------|
D|-12-10h12p10-9h10p9-7h9p7-6h7p6-4h6p4-4p3h4b~-|
A|----------------------------------------------|
E|----------------------------------------------|

Chorus/Main Riff
E|-----------------------|------------------------------------------|
B|-----------------------|------------------------------------------|
G|--------------------2~-|------------------------------------------|
D|-----------2h4~--------|------------------3---------------5-------|
A|-2-----2h4------2h4----|--2-3-5---7---8---1-2-5---7---8---3-2-3-4-|
E|-0-000-----------------|-\0-1-333/555/666---0-333/555/666---0-1-2-|
PM   ***                         **  **  **      **  **  **   * * 

Verses
E|-----------0-----------------------------|
B|---------0-----0---------------0-------3-|
G|-------3-----3---------0-----2-------4---|
D|-----0---------------4-----4-------2-----|
A|---4---------------2-----0-------0-------|
E|-2---------------0-----------------------|
Добавлено: 21.08.2013
Другие материалы по этой песне:
  • Аккорды и текст

Страница создана 21.08.2013
http://primanota.ru/washya/firey-gates-of-hell-chords.htm
Привет, Гость.
Предлагаем пройти революционный курс по гитаре.
Подарок от PrimaNota.Ru, забирай!