PrimaNota.ru - самый крупный в мире бесплатный архив песенных текстов, аккордов, табулатур и нот


Washya - Firestone - таба, видео

Регистрация Запомнить меня
Войти через:  Facebook Google Twitter Vk Yandex Mail.ru

Washya - Firestone - таба, видео

Печатать
Просмотров: 49
-----------------------------------------------------------------------------
                       Firestone - washya
-----------------------------------------------------------------------------
Tuning: Standard (EBGDAE)
Intro
E|------------------------------------------------|
B|------------------------------------------------|
G|------------------------------------------------|
D|------3---------------------3-----5555---5555---|
A|------1-3---8888788887------1-3---3333-5-3333-5-|
E|-0000---1-0-6666566665-0000---1-0------3------3-|
PM ****     *            ****     * 

Verses
E|------------------------------------------------------------|
B|------------------------------------------------------------|
G|------------------------------------------------------------|
D|------------------------------------------------------------|
A|-33332-33332--33323332-33332-33332--33335-33336-33332-33332-|
E|-11110-11110--11101110-11110-11110--11113-11114-11110-11110-|
PM ****  ****   *** ***  ****  ****   ****  ****  ****  **** 

Chorus
E|-------------------------------------------------------------------|
B|-------------------------------------------------------------------|
G|-----------------------------9-9-9\7-7-----------------------------|
D|-------------------------------------------------------------------|
A|-5/88---3/66---4/77---7/1010-7-7-7\5-5-3/66-4/77-5/88-6/99-9-7-5-2-|
E|-3/66-0-1/44-0-2/55-0-5/8-8------------1/44-2/55-3/66-4/77-7-5-3-0-|
PM      *      *      *                                      * * *  
Добавлено: 30.09.2013
Другие материалы по этой песне:
  • Аккорды и текст

Страница создана 30.09.2013
http://primanota.ru/washya/firestone-chords.htm
Привет, Гость.
Предлагаем пройти революционный курс по гитаре.
Подарок от PrimaNota.Ru, забирай!