PrimaNota.ru - самый крупный в мире бесплатный архив песенных текстов, аккордов, табулатур и нот


Washya - Dusty Road - таба, видео

Регистрация Запомнить меня
Войти через:  Facebook Google Twitter Vk Yandex Mail.ru

Washya - Dusty Road - таба, видео

Печатать
Просмотров: 114
Уроки эстрадного вокала в Санкт-Петербурге
-----------------------------------------------------------------------------
                        Dusty Road - Washya
-----------------------------------------------------------------------------
Tuning: 1/2 step down (D#A#F#G#C#D#)
Intro
D#|---------------------------------------|
A#|---------------------------------------|
F#|---------------------------------------|
C#|-------------------------------------3-|
G#|-444-666-777-444-666-777-444-666-777-1-|
D#|-222-444-555-222-444-555-222-444-555---|
Pm  ... ... ... ... ... ... ... ... ... 

Verses
D#|--------------------------------|
A#|--------------------------------|
F#|--------------------------------|
C#|----------5-----------3---------|
G#|-----3----3---7---5---1---4-3-2-|
D#|-000-1-00---0-5-0-3-0---0-2-1-0-|
pm  ...   ..   .   .   .   .     

Chorus
D#|-------------------------------------------|
A#|-------------------------------------------|
F#|-------------------------------------------|
C#|-3-33-3-4----------------5-55------------3-|
G#|-1-11-1-2-5-55-4-5-3-333-3-33-7-777-4-44-1-|
D#|----------3-33-2-3-1-111------5-555-2-22---|
pm             ..       ...        ...     
Добавлено: 09.06.2013
Другие материалы по этой песне:
  • Аккорды и текст

Страница создана 09.06.2013
http://primanota.ru/washya/dusty-road-chords.htm
Привет, Гость.
Предлагаем пройти революционный курс по гитаре.
Подарок от PrimaNota.Ru, забирай!