PrimaNota.ru - самый крупный в мире бесплатный архив песенных текстов, аккордов, табулатур и нот


Washya - Dynamite - таба, видео

Регистрация Запомнить меня
Войти через:  Facebook Google Twitter Vk Yandex Mail.ru

Washya - Dynamite - таба, видео

Печатать
Просмотров: 51
-------------------------------------------------------------------------------
                            Dynamite - Washya
-------------------------------------------------------------------------------
Tuning: Standard (ebgDAE)
Intro
e|-------------------|
b|-------------------|
g|-------------------|
D|-2-2h5p4-0h2h4-----|
A|-2-2-----0h2---5-4-|
E|---------------3-2-|

Verses
e|-------------------|
b|-------------------|
g|-------------------|
D|---2---2h4-----5p4-|
A|---2---2-------2---|
E|-0---3-----2h3-----|
Pm *   *     *** 

Chorus
e|-------------------------------------|
b|-------------------------------------|
g|-------------------------------------|
D|-4-2-----4-4-2-4-2-----2-2-4-2-------|
A|-2-0-4-2-4-4-2-4-2-4-4-0-0-2-0-4-2-2-|
E|-----2-0-----------2-2---------2-0-0-|

Solo
e|-----------------------------------|
b|---------8----------------8-10-12--|
g|-9-9-7-9---9-7--------9-7----------|
D|---------------9-7-10--------------|
A|-----------------------------------|
E|-----------------------------------|

e|----------------------------15b-15bp13-15p12-15p12-------------|
b|-12b-10----10-------10h12/--------------------------15p12------|
g|--------12----10h12--------------------------------------15p13-|
D|---------------------------------------------------------------|
A|---------------------------------------------------------------|
E|---------------------------------------------------------------|

e|----18----18b-15h19~/-|
b|-17----17-------------|
g|----------------------|
D|----------------------|
A|----------------------|
E|----------------------|
Добавлено: 25.11.2013
Другие материалы по этой песне:
  • Аккорды и текст

Страница создана 25.11.2013
http://primanota.ru/washya/dynamite-chords.htm
Привет, Гость.
Предлагаем пройти революционный курс по гитаре.
Подарок от PrimaNota.Ru, забирай!