PrimaNota.ru - самый крупный в мире бесплатный архив песенных текстов, аккордов, табулатур и нот


Washya - Dwindle - таба, видео

Регистрация Запомнить меня
Войти через:  Facebook Google Twitter Vk Yandex Mail.ru

Washya - Dwindle - таба, видео

Печатать
Просмотров: 92
Уроки эстрадного вокала в Санкт-Петербурге
-----------------------------------------------------------------------------
                         Dwindle - Washya
-----------------------------------------------------------------------------
Tuning: Standard (EBGDAE)
Intro/Verses
E|---------------------------------0---------------------------5-|
B|-------0-------------2------------------------9------------5---|
G|-----4---4---------3---3-------4---5-------10---10-------6-----|
D|---5-------5-----5-------5---6-------7---8---------8---5-------|
A|-7-----------7-7-----------7-----------6-------------6---------|
E|---------------------------------------------------------------|

Chorus (distortion a plenty)
E|--------------------------------------------------------------------------|
B|--------------------------------------------------------------------------|
G|--------------------------------------------------------------------------|
D|---------------------------7---------------------------3--------------4-3-|
A|---------------------9-8-7-5---------------------5-4-3-1--------------2-1-|
E|-0-00-0-00-0-00-0-00-7-6-5---0-00-0-00-0-00-0-00-3-2-1---0-00-00-0-00-----|
PM * ** * ** * ** * **         * ** * ** * ** * **         * ** ** * ** 

          -------<12>---------------|
B|-------|-----<5>--------<5>-----------|
G|-------|--------------------<12>------|
D|-------|------------------------------|
A|-2-3-2-|-------------------------3-2~-|
E|-0-1-0-|---------0---------------1-0~-|

Добавлено: 01.07.2013
Другие материалы по этой песне:
  • Аккорды и текст

Страница создана 01.07.2013
http://primanota.ru/washya/dwindle-chords.htm
Привет, Гость.
Предлагаем пройти революционный курс по гитаре.
Подарок от PrimaNota.Ru, забирай!