PrimaNota.ru - самый крупный в мире бесплатный архив песенных текстов, аккордов, табулатур и нот


Washya - Dominion - таба, видео

Регистрация Запомнить меня
Войти через:  Facebook Google Twitter Vk Yandex Mail.ru

Washya - Dominion - таба, видео

Печатать
Просмотров: 62
-----------------------------------------------------------------------------
                 Dominion - Washya
-----------------------------------------------------------------------------
Tuning: Standard (EBGDAE)
Intro/Chorus
E|------------------------------------|---------|
B|------------------------------------|---------|
G|------------------------------------|---------|
D|-----55-777-55-777-55-777-----------|---------|
A|-----33-555-33-555-33-555-333-5-3-5-|-5-4-3-2-|
E|-000----------------------111-3-1-3-|-3-2-1-0-|
PM ***                               x3 * * * *  

Verses
E|---------------------------------------------------|
B|---------------------------------------------------|
G|---------------------------------------------------|
D|------------------------------------3--------------|
A|-3333-2-2-2--3333-2-2-2--3333-2-2-2-1-5-3333-2-2-2-|
E|-1111-0-0-0--1111-0-0-0--1111-0-0-0---3-1111-0-0-0-|

Part 2
E|-------------------------------------|
B|-------------------------------------|
G|-------------------------------------|
D|-----------5------3------2-3---------|
A|-888-5-7-2-3------1------0-1-5-4-3-2-|
E|-666-3-5-0---0000---0000-----3-2-1-0-|
PM             ****   ****        

Interlude (Play fast palm muted)
E|---------------------------------------------|
B|---------------------------------------------|
G|---------------------------------------------|
D|---------4-----------------------------------|
A|-----4-----4---------5-4-----------2-3-4-5-5-|
E|-0-2---2-----2-5-4-2-----2-1-2-3-4---------3-|
PM * * * * * * * * * * * * * * * * * * * * * 

Part 2
E|-------------------------------------------------|
B|-------------------------------------------------|
G|-------------------------------------------------|
D|-------------------------------------------------|
A|-3/5-3/5-3/5-2-2222222-8\7-8\7-8/10-101010101010-|
E|-1/3-1/3-1/3-0-0000000-6\5-6\5-6/8--8-8-8-8-8-8--|
PM               *******              * * * * * * 

E|-----------------------|
B|-----------------------|
G|-----------------------|
D|-----------------------|
A|-5-55\4-44\3-2-2222222-|
E|-3-33\2-22\1-0-0000000-|
PM               ******* 

Guitar Solo
E|------------------------------------15------15----------17p16h19~-|
B|----17----17----17h19p17p15---------15------15----16h18-----------|
G|-16----16----16-------------17~-17b-----17b----17-----------------|
D|------------------------------------------------------------------|
A|------------------------------------------------------------------|
E|------------------------------------------------------------------|

E|-15h19p15h19p15h19p15h19p16h20p16h20p16h20p15h19p15h19----------------|
B|-------------------------------------------------------18p17----18p17-|
G|-------------------------------------------------------------19-------|
D|----------------------------------------------------------------------|
A|----------------------------------------------------------------------|
E|----------------------------------------------------------------------|

E|-------17p16-------------17h18-------------16h18-------------------17-|
B|----19-------17----17p16-------16p15p13h15-------16----------13h15----|
G|-18-------------18----------------------------------15p13p12----------|
D|----------------------------------------------------------------------|
A|----------------------------------------------------------------------|
E|----------------------------------------------------------------------|

E|-19p17p15h17h19p17p15--------------------------------------12h13h15/19~--|
B|----------------------13p12h13h15p13p12h13h15-------15p13----------------|
G|----------------------------------------------13p12----------------------|
D|-------------------------------------------------------------------------|
A|-------------------------------------------------------------------------|
E|-------------------------------------------------------------------------|

E|----19b-19b-22b~~~-|
B|----19b-19b-21b~~~-|
G|-17----------------|
D|-------------------|
A|-------------------|
E|-------------------|

Verses
E|---------------------------------------------------|
B|---------------------------------------------------|
G|---------------------------------------------------|
D|------------------------------------3--------------|
A|-3333-2-2-2--3333-2-2-2--3333-2-2-2-1-5-3333-2-2-2-|
E|-1111-0-0-0--1111-0-0-0--1111-0-0-0---3-1111-0-0-0-|

Part 2
E|-------------------------------------|
B|-------------------------------------|
G|-------------------------------------|
D|-----------5------3------2-3---------|
A|-888-5-7-2-3------1------0-1-5-4-3-2-|
E|-666-3-5-0---0000---0000-----3-2-1-0-|
PM             ****   ****        

Intro/Chorus
E|------------------------------------|---------|
B|------------------------------------|---------|
G|------------------------------------|---------|
D|-----55-777-55-777-55-777-----------|---------|
A|-----33-555-33-555-33-555-333-5-3-5-|-5-4-3-2-|
E|-000----------------------111-3-1-3-|-3-2-1-0-|
PM ***                               x3 * * * *  
Добавлено: 24.09.2013
Другие материалы по этой песне:
  • Аккорды и текст

Страница создана 24.09.2013
http://primanota.ru/washya/dominion-chords.htm
Привет, Гость.
Предлагаем пройти революционный курс по гитаре.
Подарок от PrimaNota.Ru, забирай!