PrimaNota.ru - самый крупный в мире бесплатный архив песенных текстов, аккордов, табулатур и нот


Washya - Dont Escape - таба, видео

Регистрация Запомнить меня
Войти через:  Facebook Google Twitter Vk Yandex Mail.ru

Washya - Dont Escape - таба, видео

Печатать
Просмотров: 97
-----------------------------------------------------------------------------
           Don't Escape - Washya
-----------------------------------------------------------------------------
Tuning: Standard (EBGDAE)
Intro
E|---------------------|
B|---------------------|
G|-/7~-9----6h7~---11~-|
D|-------8~------9-----|
A|---------------------|
E|---------------------|

Verses 1st,3rd  2nd,4th   5th
E|-------------|---------|-------------|
B|-------------|---------|----9999-99~-|
G|-------------|-4444444-|-10----------|
D|------77-6-4-|-4444444-|-------------|
A|------77-6-4-|-2222222-|-------------|
E|-\\xx-55-4-2-|---------|-------------|
PM               ******* 

Chorus
E|---------------------------------------------------------|
B|-77777-44444-----------444444-777777---------------------|
G|-77777-44444-----------444444-777777---------------------|
D|-77777-44444-5-------5-444444-777777-7--------7--------7-|
A|-55555-22222-5-------5-222222-555555-7--------7--------7-|
E|-------------3-xx-xx-3---------------5-xxx-xx-5-xxx-xx-5-|
Добавлено: 12.08.2013
Другие материалы по этой песне:
  • Аккорды и текст

Страница создана 12.08.2013
http://primanota.ru/washya/dont-escape-chords.htm
Привет, Гость.
Предлагаем пройти революционный курс по гитаре.
Подарок от PrimaNota.Ru, забирай!